» » »

Iced Earth - Hollow Man Bass

Artists:  A B C D E F G H I J K L M N O P Q R S T U V W X Y Z # 

Hollow Man Bass

(ver. 1) Click to play this song!
Iced Earth
 Rating:
4/5 (4 votes)


 Hollow Man lessons Tabs too difficult? Try these video lessons and learn fast
 
                 Hollow Man                                    


                                                                      Iced Earth
Bass



      E  E  E.  S E.  S S E  S    E  E  E.  S E.  S S E  S  
F#||---------------------------|---------------------------|
C#||---------------------------|---------------------------|
G#||---------------------------|---------------------------|
D#||--0--0--L---0--------------|--0--0--L---0--------------|
A#||--------------3---3-3-3--3-|--------------3---3-3-3--3-|


  E  E  E.  S E.  S S E  S    E  E  E.  S E.  S S E  S  
---------------------------|---------------------------|
---------------------------|---------------------------|
---------------------------|---------------------------|
--0--0--L---0--------------|--0--0--L---0--------------|
--------------3---3-3-3--3-|--------------3---3-3-3--3-|


  E  E  E.  S E.  S S E  S    E  E  E.  S E.  S S E  S  
---------------------------|---------------------------|
---------------------------|---------------------------|
---------------------------|---------------------------|
--0--0--L---0--------------|--0--0--L---0--------------|
--------------3---3-3-3--3-|--------------3---3-3-3--3-|


  E.  S S S E.  S S E  E.     E.  S S S E.  S S E  S E   
---------------------------|----------------------------|
---------------------------|----------------------------|
--0---0-3---0---0-0-0--0---|--0---0-3---0---2------2----|
---------------------------|------------------3-5----3--|
---------------------------|----------------------------|


  E  E  E.  S E.  S S E  S    E  E  E.  S E.  S S E  S  
---------------------------|---------------------------|
---------------------------|---------------------------|
---------------------------|---------------------------|
--0--0--L---0--------------|--0--0--L---0--------------|
--------------3---3-3-3--3-|--------------3---3-3-3--3-|


  E  E  E.  S E.  S S E  S    E  E  E.  S E.  S S E  S  
---------------------------|---------------------------|
---------------------------|---------------------------|
---------------------------|---------------------------|
--0--0--L---0--------------|--0--0--L---0--------------|
--------------3---3-3-3--3-|--------------3---3-3-3--3-|


  E.  S S S E.  S S E  E.     E.  S S S E.  S S E  S E   
---------------------------|----------------------------|
---------------------------|----------------------------|
--0---0-3---0---0-0-0--0---|--0---0-3---0---2------2----|
---------------------------|------------------3-5----3--|
---------------------------|----------------------------|


  S S S S S S S S S S S S S S S S    S S S S S S S S S S S S S S S S  
----------------------------------|----------------------------------|
----------------------------------|----------------------------------|
----------7-L-L-----5---5-L-5-5-5-|----------7-L-L-----3---3-L-3-3-3-|
--0-L-0-0-------0-0---------------|--0-L-0-0-------0-0---------------|
----------------------------------|----------------------------------|


  S S S S S S S S S S S S S S S S    S S S S S S S S S S S S S S S S  
----------------------------------|----------------------------------|
----------------------------------|----------------------------------|
----------7-L-L-----5---5-L-5-5-5-|--3-L-3-3-3-L-3-3-3-L-3-3-3-5-5-5-|
--0-L-0-0-------0-0---------------|----------------------------------|
----------------------------------|----------------------------------|


  S S S S S S S S S S S S S S S S    S S S S S S S S S S S S S S S S  
----------------------------------|----------------------------------|
----------------------------------|----------------------------------|
----------7-L-L-----5---5-L-5-5-5-|----------7-L-L-----3---3-L-3-3-3-|
--0-L-0-0-------0-0---------------|--0-L-0-0-------0-0---------------|
----------------------------------|----------------------------------|


  S S S S S S S S S S S S S S S S    S S S S S S S S S S S S S S S S  
----------------------------------|----------------------------------|
----------------------------------|----------------------------------|
----------7-L-L-----5---5-L-5-5-5-|--3-L-3-3-3-L-3-3-3-L-3-3-3-5-5-5-|
--0-L-0-0-------0-0---------------|----------------------------------|
----------------------------------|----------------------------------|


  E  E  E.  S E.  S S E  S    E  E  E.  S E.  S S E  S  
---------------------------|---------------------------|
---------------------------|---------------------------|
--7------------------------|---------------------------|
-----0--L---0--------------|--0--0--L---0--------------|
--------------3---3-3-3--3-|--------------3---3-3-3--3-|


  E  E  E.  S E.  S S E  S    E  E  E.  S E.  S S E  S  
---------------------------|---------------------------|
---------------------------|---------------------------|
---------------------------|---------------------------|
--0--0--L---0--------------|--0--0--L---0--------------|
--------------3---3-3-3--3-|--------------3---3-3-3--3-|


  E.  S S S E.  S S E  E.     E.  S S S E.  S S E  S E   
---------------------------|----------------------------|
---------------------------|----------------------------|
--0---0-3---0---0-0-0--0---|--0---0-3---0---2------2----|
---------------------------|------------------3-5----3--|
---------------------------|----------------------------|


  E  E  E.  S E.  S S E  S    E  E  E.  S E.  S S E  S  
---------------------------|---------------------------|
---------------------------|---------------------------|
---------------------------|---------------------------|
--0--0--L---0--------------|--0--0--L---0--------------|
--------------3---3-3-3--3-|--------------3---3-3-3--3-|


  E  E  E.  S E.  S S E  S    E  E  E.  S E.  S S E  S  
---------------------------|---------------------------|
---------------------------|---------------------------|
---------------------------|---------------------------|
--0--0--L---0--------------|--0--0--L---0--------------|
--------------3---3-3-3--3-|--------------3---3-3-3--3-|


  E.  S S S E.  S S E  E.     E.  S S S E.  S S E  S E   
---------------------------|----------------------------|
---------------------------|----------------------------|
--0---0-3---0---0-0-0--0---|--0---0-3---0---2------2----|
---------------------------|------------------3-5----3--|
---------------------------|----------------------------|


  S S S S S S S S S S S S S S S S    S S S S S S S S S S S S S S S S  
----------------------------------|----------------------------------|
----------------------------------|----------------------------------|
----------7-L-L-----5---5-L-5-5-5-|----------7-L-L-----3---3-L-3-3-3-|
--0-L-0-0-------0-0---------------|--0-L-0-0-------0-0---------------|
----------------------------------|----------------------------------|


  S S S S S S S S S S S S S S S S    S S S S S S S S S S S S S S S S  
----------------------------------|----------------------------------|
----------------------------------|----------------------------------|
----------7-L-L-----5---5-L-5-5-5-|--3-L-3-3-3-L-3-3-3-L-3-3-3-5-5-5-|
--0-L-0-0-------0-0---------------|----------------------------------|
----------------------------------|----------------------------------|


  S S S S S S S S S S S S S S S S    S S S S S S S S S S S S S S S S  
----------------------------------|----------------------------------|
----------------------------------|----------------------------------|
----------7-L-L-----5---5-L-5-5-5-|----------7-L-L-----3---3-L-3-3-3-|
--0-L-0-0-------0-0---------------|--0-L-0-0-------0-0---------------|
----------------------------------|----------------------------------|


  S S S S S S S S S S S S S S S S    S S S S S S S S S S S S S S S S  
----------------------------------|----------------------------------|
----------------------------------|----------------------------------|
----------7-L-L-----5---5-L-5-5-5-|--3-L-3-3-3-L-3-3-3-L-3-3-3-5-5-5-|
--0-L-0-0-------0-0---------------|----------------------------------|
----------------------------------|----------------------------------|


  S S S S S S S S S  S S S S S S S    S S S S S S S S S S S S S S S S  
-----------------------------------|----------------------------------|
-----------------------------------|----------------------------------|
----------7-L-L-7-9-10---9---7---5-|--5-L-5-3-5-L-L-5-7-9---7---5---7-|
--0-L-0-L--------------------------|----------------------------------|
-----------------------------------|----------------------------------|


  S S S S S S S S S  S S S S S S S    S S S S S S S S S S S S S S S S  
-----------------------------------|----------------------------------|
-----------------------------------|----------------------------------|
--7-L-7-5-7-L-L-7-9-10---9---7---5-|--5-L-5-3-5-L-L-5-7-9---7---5---7-|
-----------------------------------|----------------------------------|
-----------------------------------|----------------------------------|


  S S S S S S S S S  S S S S S S S    S S S S S S S S S S S S S S S S  
-----------------------------------|----------------------------------|
-----------------------------------|----------------------------------|
--7-L-7-5-7-L-L-7-9-10---9---7---5-|--5-L-5-3-5-L-L-5-7-9---7---5---7-|
-----------------------------------|----------------------------------|
-----------------------------------|----------------------------------|


  S S S S S S S S S  S S S S S S S    S S S S S S S S S S S S S S S S  
-----------------------------------|----------------------------------|
-----------------------------------|----------------------------------|
--7-L-7-5-7-L-L-7-9-10---9---7---5-|--5-L-5-3-5-L-L-5-7-9---7---5---7-|
-----------------------------------|----------------------------------|
-----------------------------------|----------------------------------|


  S S S S S S S S S S S S S S S S    S S S S S S S S S S S S S S S S  
----------------------------------|----------------------------------|
----------------------------------|----------------------------------|
----------7-L-L-----5---5-L-5-5-5-|----------7-L-L-----3---3-L-3-3-3-|
--0-L-0-0-------0-0---------------|--0-L-0-0-------0-0---------------|
----------------------------------|----------------------------------|


  S S S S S S S S S S S S S S S S    S S S S S S S S S S S S S S S S  
----------------------------------|----------------------------------|
----------------------------------|----------------------------------|
----------7-L-L-----5---5-L-5-5-5-|--3-L-3-3-3-L-3-3-3-L-3-3-3-5-5-5-|
--0-L-0-0-------0-0---------------|----------------------------------|
----------------------------------|----------------------------------|


  S S S S S S S S S S S S S S S S    S S S S S S S S S S S S S S S S  
----------------------------------|----------------------------------|
----------------------------------|----------------------------------|
----------7-L-L-----5---5-L-5-5-5-|----------7-L-L-----3---3-L-3-3-3-|
--0-L-0-0-------0-0---------------|--0-L-0-0-------0-0---------------|
----------------------------------|----------------------------------|


  S S S S S S S S S S S S S S S S    S S S S S S S S S S S S S S S S  
----------------------------------|----------------------------------|
----------------------------------|----------------------------------|
----------7-L-L-----5---5-L-5-5-5-|--3-L-3-3-3-L-3-3-3-L-3-3-3-5-5-5-|
--0-L-0-0-------0-0---------------|----------------------------------|
----------------------------------|----------------------------------|


  S S S S S S S S S  S S S S S S S    S S S S S S S S S S S S S S S S  
-----------------------------------|----------------------------------|
-----------------------------------|----------------------------------|
----------7-L-L-7-9-10---9---7---5-|--5-L-5-3-5-L-L-5-7-9---7---5---7-|
--0-L-0-L--------------------------|----------------------------------|
-----------------------------------|----------------------------------|


  S S S S S S S S S  S S S S S S S    S S S S S S S S S S S S S S S S  
-----------------------------------|----------------------------------|
-----------------------------------|----------------------------------|
--7-L-7-5-7-L-L-7-9-10---9---7---5-|--5-L-5-3-5-L-L-5-7-9---7---5---7-|
-----------------------------------|----------------------------------|
-----------------------------------|----------------------------------|


  S S S S S S S S S  S S S S S S S    S S S S S S S S S S S S S S S S  
-----------------------------------|----------------------------------|
-----------------------------------|----------------------------------|
--7-L-7-5-7-L-L-7-9-10---9---7---5-|--5-L-5-3-5-L-L-5-7-9---7---5---7-|
-----------------------------------|----------------------------------|
-----------------------------------|----------------------------------|


  S S S S S S S S S  S S S S S S S    S S S S S S S S S S S S S S S S  
-----------------------------------|----------------------------------|
-----------------------------------|----------------------------------|
--7-L-7-5-7-L-L-7-9-10---9---7---5-|--5-L-5-3-5-L-L-5-7-9---7---5---7-|
-----------------------------------|----------------------------------|
-----------------------------------|----------------------------------|


  S S S S S S S S S  S S S S S S S    S S S S S S S S S S S S S S S S  
-----------------------------------|----------------------------------|
-----------------------------------|----------------------------------|
--7-L-7-5-7-L-L-7-9-10---9---7---5-|--5-L-5-3-5-L-L-5-7-9---7---5---7-|
-----------------------------------|----------------------------------|
-----------------------------------|----------------------------------|


  S S S S S S S S S  S S S S S S S    S S S S S S S S S S S S S S S S  
-----------------------------------|----------------------------------|
-----------------------------------|----------------------------------|
--7-L-7-5-7-L-L-7-9-10---9---7---5-|--5-L-5-3-5-L-L-5-7-9---7---5---7-|
-----------------------------------|----------------------------------|
-----------------------------------|----------------------------------|


  S S S S S S S S S  S S S S S S S   
-----------------------------------||
-----------------------------------||
--7-L-7-5-7-L-L-7-9-10---9---7---5-||
-----------------------------------||
-----------------------------------||




Duration Legend
---------------
W - whole
H - half
Q - quarter
E - 8th
S - 16th
T - 32nd
X - 64th
. - note dotted
|-n-|  - n-tuplets


Tablature Legend
----------------
L - tied note
x - dead note
g - grace note
(n) - ghost note
> - accentuded note
NH - natural harmonic
AH - artificial harmonic
TH - tapped harmonic
SH - semi harmonic
PH - pitch harmonic
h - hammer on
p - pull off
b - bend
br - bendRelease
pb - preBend
pbr - preBendRelease
brb - bendReleaseBend
\n/ - tremolo bar dip
\n - tremolo bar dive
-/n - tremolo bar Release up
/n\ - tremolo bar inverted dip
/n - tremolo bar return
-\n - tremolo bar Release down
S - shift slide
s - legato slide
/ -  slide into from below or out of upwards
\ -  slide into from above or out of downwards
~ - vibrato
W - wide vibrato
tr - trill
TP - tremolo picking
T - tapping
S - slap
P - pop
< - fade in
^ - brush up
v - brush down
            
Submit corrections



        Hollow Man lessons Hard to play? Try these video lessons and learn fast Hollow Man lessons
        
↑ Back to top | Tablatures and chords for acoustic guitar and electric guitar, ukulele, drums are parodies/interpretations of the original songs. You may use it for private study, scholarship, research or language learning purposes only