» » »

Iaxe - Akoy Sa Iyo Ikay Akin Tabs

Artists:  A B C D E F G H I J K L M N O P Q R S T U V W X Y Z # 

Akoy Sa Iyo Ikay Akin Tabs

(ver. 2) Click to play this song!
Iaxe
 Rating:
4.7/5 (15 votes)


 Akoy Sa Iyo Ikay Akin lessons Tabs too difficult? Try these video lessons and learn fast
 
                Tuning:    Standard

Solo part lang ito. Tama na kasi yung mga tab nito dito. Medyo may problema lang yung 
solo part na tab kaya ginawan ko.And also may kulang na chords ung mga naunang tab. Sa 
first stanza ng verse pagkatapos ng E dapat may G. Ganito dapat:

Na ako'y mahal mo rin...
e-----------0------3--0----------|
B-----------0------0--0----------|
G-----------1------0--1----------|
D-----------2------0--2----------|
A-----------2------2--2----------|
E-----------0------3--0----------|

Gawin nyo din 'to sa first stanza ng 2nd verse.

Sa refrain naman dapat may Dm/G pagkatapos ng Dm

...sa tuwing ako'y lumalapit...

e--------1------------1---|
B--------3------------3---|
G--------2------------2---|
D--------0------------0---|
A---------------------x---|
E---------------------3---|

Dagdag nyo lang lagi yung Dm/G pagkatapos ng Dm sa refrain at sa last part ng chorus 
ulit ng Dm at bago ulitin ang intro.


Eto na ung solo part. Sigurado ko dito.

e-----------------------------------|
B---------------2-------------------|
G---------1-2-4----4-2-1h2p1--------|
D-----2-4--------------------4-2h4--|
A-0-4-------------------------------|
E-----------------------------------|

e----------------------------------------------|
B------------------------------5---------------|
G---------------------2h4--4/6---4-------------|
D-2p0-------------2h4--------------2/1-2p1-----|
A-----4p0-2p0-2h4--------------------------2~--|
E----------------------------------------------|

e--5/7-5---------------|
B--5/7-5----7-5-3--2~--|
G-----------6-4-2--2~--|
D----------------------|
A---------5------------|
E----------------------|

e-12-10-9-10-9-------------------------------------------|
B-x------------12-10-9--------------14-12-10-------------|
G-x--------------------11hb-9-11fb----------13/11-11-9~--|
D-x------------------------------------------------------|
A-x------------------------------------------------------|
E--------------------------------------------------------|

~ - vibrato
h - hammer-on
p - pull-of
hb - half bend
fb - full bend

-End-

Hi nathan, ricky, ruben, joy, nemo.
            
Submit corrections



        Akoy Sa Iyo Ikay Akin lessons Hard to play? Try these video lessons and learn fast Akoy Sa Iyo Ikay Akin lessons
        
↑ Back to top | Tablatures and chords for acoustic guitar and electric guitar, ukulele, drums are parodies/interpretations of the original songs. You may use it for private study, scholarship, research or language learning purposes only