» » »

Husker Du - Could You Be The One? Tabs

Artists:  A B C D E F G H I J K L M N O P Q R S T U V W X Y Z # 

Could You Be The One? Tabs

(ver. 2) Click to play this song!
Husker Du
 Rating:
4/5 (4 votes)

 Could You Be The One? lessons Tabs too difficult? Try these video lessons and learn fast
 
                Use mainly power chords  and play the F in the intro rooted
 	on the A string. For the chorus I've explicity put "power"
 	or "five" chords down, but evrywhere else just use your 
 	discretion. 
 
 intro :
 	G 			F C
 
 	C                     Bb
 	Well could you be the one they talk about?
         Am       G      F            G 
 	Hiding inside behind another door,
         C               Bb 
 	well is it only happiness you want ?
              Am         G        F         G
 	does wanting or feeling matter any more.
         Ab                   C
 	It doesn't mean that much to me sometimes
         Ab                 C      G 
 	I don't mean that much to you
         A                         D
 	and I don't even know what I'm hiding for 
         G
 	and I don't even know what I'm hiding for
                                        F C
 	don't even know why I'm hiding..
 	C		      Bb
 	Well could you be the one they talk about
 	Am         G	    F		 G
 	life is a game that only you can make
 	C		  Bb
 	well maybe I'm about to throw it out
 	   Am         G           F          G
 	I've given it all that's all that I can take
 
         Ab                   C
 	It doesn't mean that much to me sometimes
         Ab                 C      G 
 	I don't mean that much to you
         A                         D
 	and I don't even know what I'm hiding for 
         G(root on a string)
 	and I don't even know what I'm hiding for
                                        
 	don't even know why I'm hiding.
              C5    B5   A5  *         A5 G5 C5
 	Well could you  be the one 
 	C5    B5   A5  *         A5 G5 C5
 	could you  be the one 
 	C5    B5   A5  *         A5 G5     F5            G
 	could you  be the one      that's hanging around
 
 
 	* rest (listen to the record). 
 
 	Solo:	> slide, ^ hammer/pull
 
 	Play this bit twice over the C Bb Am G F G progression:
 	---------------------------------------------------------
 	-----------11^10-----------10 10-10----13-13^10----------
 	-6 > 9--12-------12^10^12-----------12----------12^10^12
 	---------------------------------------------------------
 	---------------------------------------------------------
 	--------------------------------------------------------
 
 	This bit over the Ab C part of the verse...
 	-----------------------15-------------------------------
 	-------------13--13-15----15-15------------13--13- 15---
 	--12 > 13 -13--13----------------12 > 13-13--13---------
 	--------------------------------------------------------
 	--------------------------------------------------------
 	--------------------------------------------------------
 
 	--15-13-12----------------------------------------------
 	-----------15-13-12-------------------------------------
 	--------------------14 12-12^14-------------------------
 	-------------------------------14>17--------------------
 	--------------------------------------------------------
 	--------------------------------------------------------
 
 	Cheers,
 
 		Chris.
            
Submit corrections


        Could You Be The One? lessons Hard to play? Try these video lessons and learn fast Could You Be The One? lessons
        
↑ Back to top | Tablatures and chords for acoustic guitar and electric guitar, ukulele, drums are parodies/interpretations of the original songs. You may use it for private study, scholarship, research or language learning purposes only