» » »

Hurt - Wars Tabs

Artists:  A B C D E F G H I J K L M N O P Q R S T U V W X Y Z # 

Wars Tabs

(ver. 2) Click to play this song!
Hurt
 Rating:
4/5 (4 votes)

 Wars lessons Tabs too difficult? Try these video lessons and learn fast
 
                This is pretty close. I saw them live not too long ago and this is pretty much how they played it.
Rate it and give feedback if you can see room for improvement.

E-------------------------------------------------------------------------------|
B-------------------------------------------------------------------------------|
G-------------------------------------------------------------------------------|
D--0--000-----------------------------------------------------------------------|
A--0--000-----------------------------12-13-12-12-12-12-12----------------------|
E--0--000-----4-5----7-8------10------12-13-12-12-12-12-12----------------------|

E-------------------------------------------------------------------------------|
B-------------------------------------------------------------------------------|
G-------------------------------------------------------------------------------|
D-------------------------------------------------------------------------------|
A--------------------------12-13-12-12-12-12-12---------------------------------|
E--4-5----7-8------10------12-13-12-12-12-12-12---------------------------------|

E------------------------------------------------------------------------------|
B------------------------------------------------------------------------------|
G------------------------------------------------------------------------------|
D------------------------------------------------------------------------------|
A--13-12-----------------------------------------------------------------------|
E--13-12------10------8-7----5-4----0-0-0-0-0----------------------------------|

E------------------------------------------------------------------------------|
B------------------------------------------------------------------------------|
G------------------------------------------------------------------------------|
D-----------------------------------0------------------------------------------|
A-----------------------------------0------------------------------------------|
E--4-5----7-8------10------12-13----0------------------------------------------|


Play that 3 times then add this. I didn’t put the pattern. Listen and you can figure it out.

1st Chorus:

E-----------------------------------------------------------------------------------------------|
B-----------------------------------------------------------------------------------------------|
G-------------------------------------------------------------------------------3-----5-----7---|
A--0----5----7----5----7----0----------7-----5-----7-----8-----7----10-----5-----3-----5-----7--|
D--0----5----7----5----7----0----------7-----5-----7-----8-----7----10-----5-----1-----3-----5--|
E--0----5----7----5----7----0----------7-----5-----7-----8-----7----10-----5--------------------|

Interlude:

E------------------------------------------------------------------------------|
B------------------------------------------------------------------------------|
G------------------------------------------------------------------------------|
D------------------------------------------------------------------------------|
A-------------------------------12-13-12-12-12-12-12---------------------------|
E-------4-5----7-8------10------12-13-12-12-12-12-12---------------------------|


E------------------------------------------------------------------------------|
B------------------------------------------------------------------------------|
G------------------------------------------------------------------------------|
D------------------------------------------------------------------------------|
A--------------------------12-13-12-12-12-12-12--------------------------------|
E--4-5----7-8------10------12-13-12-12-12-12-12--------------------------------|

E------------------------------------------------------------------------------|
B------------------------------------------------------------------------------|
G------------------------------------------------------------------------------|
D------------------------------------------------------------------------------|
A--13-12-----------------------------------------------------------------------|
E--13-12------10------8-7----5-4----0-0-0-0-0----------------------------------|

E------------------------------------------------------------------------------|
B------------------------------------------------------------------------------|
G------------------------------------------------------------------------------|
D------------------------------------------------------------------------------|
A------------------------------------------------------------------------------|
E--4-5----7-8------10------12-13----12-12-10-0-12------------------------------|

E------------------------------------------------------------------------------|
B------------------------------------------------------------------------------|
G------------------------------------------------------------------------------|
D------------------------------------------------------------------------------|
A------------------------------------------------------------------------------|
E--13-12----10----8-7----5-0-4-0-7-----10-8---7---5-4---12-12-10-0-12----------|

E------------------------------------------------------------------------------|
B------------------------------------------------------------------------------|
G------------------------------------------------------------------------------|
D---------------------------------------------------------0--------------------|
A---------------------------------------------------------0--------------------|
E--13-12----10----8-7----5-0-4-0-7-----10-8---7-0---5-4---0--------------------|


2nd Chorus:   Again listen for the pattern.

E------------------------------------------------------------------------------|
B------------------------------------------------------------------------------|
G------------------------------------------------------------------------------|
A--0---5---7---5---7---0------7----5---7---0------5---7----5----7----0---------|
D--0---5---7---5---7---0------7----5---7---0------5---7----5----7----0---------|
E--0---5---7---5---7---0------7----5---7---0------5---7----5----7----0---------|

E----------------------------------------------------------------------------------|
B----------------------------------------------------------------------------------|
G-------------------------------------------------------------------3----5----7----|
A---7----5---7---8---7---10----5----7-----8---7---10---5---7--------3----5----7----|
D---7----5---7---8---7---10----5----7-----8---7---10---5---7--------1----3----5----|
E---7----5---7---8---7---10----5----7-----8---7---10---5---7-----------------------|

Outro:

E-----------------------------------------------------------------------------|
B-----------------------------------------------------------------------------|
G-----------------------------------------------------------------------------|
D-----------------------------------------------------------------------------|
A-------------------------------12-13-12-12-12-12-12--------------------------|
E-------4-5----7-8------10------12-13-12-12-12-12-12--------------------------|


E-----------------------------------------------------------------------------|
B-----------------------------------------------------------------------------|
G-----------------------------------------------------------------------------|
D-----------------------------------------------------------------------------|
A--------------------------12-13-12-12-12-12-12-------------------------------|
E--4-5----7-8------10------12-13-12-12-12-12-12-------------------------------|

E-----------------------------------------------------------------------------|
B-----------------------------------------------------------------------------|
G-----------------------------------------------------------------------------|
D-----------------------------------------------------------------------------|
A--13-12----------------------------------------------------------------------|
E--13-12------10------8-7----5-4----0-0-0-0-0---------------------------------|

E------------------------------------------------------------------------------|
B------------------------------------------------------------------------------|
G------------------------------------------------------------------------------|
D------------------------------------------------------------------------------|
A--13-12-----------------------------------------------------------------------|
E--13-12------10------8-7----5-4-----------------------------------------------|
            
Submit corrections


        Wars lessons Hard to play? Try these video lessons and learn fast Wars lessons
        
↑ Back to top | Tablatures and chords for acoustic guitar and electric guitar, ukulele, drums are parodies/interpretations of the original songs. You may use it for private study, scholarship, research or language learning purposes only