» » »

Hot Water Music - Trusty Chords Bass

Artists:  A B C D E F G H I J K L M N O P Q R S T U V W X Y Z # 

Trusty Chords Bass

(ver. 1) Click to play this song!
Hot Water Music
 Rating:
4.3/5 (24 votes)

 Trusty Chords lessons Tabs too difficult? Try these video lessons and learn fast
 
                [Intro]
G|-----------------------------------------------------------------------------------------------------|
D|-------------------------------------------------------------------------------11-12-11-12-----------|
A|----5---5--5--5----------------------5---5--5--5---------7--9------------------------------12-----5--|
E|--------------------7---7--7--7--------------------------------7---7--7--7---------------------------|

[Verse 1]
G|---------------------------------------------------------------------------|
D|---------------------------------------------------------------------------|
A|--5--5--5-------------------------5---5--5--5------------------------------| repeat 2 times
E|----------------7---7--7--7-------------------------7---7--7--7------------|

[Bridge]
G|---------------------------------------------------------------------------------------|
D|---------------------------------------------------------------------------------------|
A|---4-5-4-5-------------------------------------------------------------------------5---| 
E|------------5---7-----5--5--5-5-5-5----5-5--5--5-5-5-5----3--3--3-3-3-3-----3----------|

[Verse 2]
G|----------------------------------------------------------------------------------------------|
D|------------------------------------------------------------------------11-12-11-12-----------|
A|--5--5--5---------------------5---5--5--5-------7--9--------------------------------12-----5--|
E|--------------7---7--7--7----------------------------7---7--7--7------------------------------|

G|------------------------------------------------------------|
D|------------------------------------------------------------|
A|--5--5--5------5-----5-----5--------------------------------| 
E|--------------------------------7-7-7-----7-----7-----7-----|

G|---------------------------------------------------------------|
D|---------------------------------------------------------------|
A|--5--5--5------5-----5-----5-------------------4--5------------| 
E|--------------------------------7-7-7-----7----------5--7------|

[Bridge]
G|----------------------------------------------------------------|
D|----------------------------------------------5-4---------------|
A|---------------------------------------------------5------------| 
E|--5--5--5-5-5-5----5-5--5--5-5-5-5----3---3--------------3------|

[Chorus]
G|---------------------------------------------------------------------------------|
D|---------------------------------------------------------------------------------|
A|--5--5--5--5--5--5--5--5----5--5--5--5--5--5--5--5-------------------------------| 
E|-----------------------------------------------------3--3--3--3--3--3--3--3------|

G|---------------------------------------------------------------------------------|
D|----------------------------------------------------5--5--4--4--2--2-------------|
A|---------------------------2--2--2--2--2--2--2--2---------------------4----------| 
E|--3--3--3--3--3--3--3--3---------------------------------------------------------|

G|---------------------------------------------------------------------------------|
D|--------------------5--5--4-----5--4---------------------------------------------|
A|-----------------------------5--------2--4----5--5--5--5--5--5--5--5-------------| 
E|---3--3--3----3--3---------------------------------------------------------------|

G|---------------------------------------------------------------------------------|
D|---------------------------------------------------------------------------------|
A|--5--5--5--5--5--5--5--5-----------------------------------------2--2--4--4------| 
E|---------------------------3--3--3--3--3--3--3--3----3--3--3--3------------------|

G|--------------------------------------------------------------------------------------------|
D|----------------------------------------------------------------------------5-4---5-4-------|
A|---------------------------5--5--4--4--2--2--4--4-------------------------------5-----5-----| 
E|--5--5--5--5--5--5--5--5----------------------------3--3--3--3--3--3---3--------------------|

[Interlude]
G|------------------------------------------------------------------------------------------------------|
D|--------------------------------------------------------------------------------11-12-11-12-----------|
A|--5--5--5---------------------------5---5--5--5--------7--9----------------------------------12-------|
E|-----------------7---7--7--7---------------------------------7---7--7--7------------------------------|

[Verse 3]
G|------------------------------------------------------------------------------------------------------|
D|------------------------------------------------------------------------------------------------------|
A|--5--5--5--5--5--5--5--5---5--5--5--5--5--5--4--4---2--2--2--2--2--2--2--2---2--2--2--2--2--2--4--4---| 
E|------------------------------------------------------------------------------------------------------|

G|-------------------------------------------------------------------------------------------------------|
D|-------------------------------------------------------------------------------------------------------|
A|--5--5--5--5--5--5--5--5---7--7--5--5--4--5--4--5---2---2--2--2--2--2--2--2---2--2--2--2--2--2--4--4---| 
E|-------------------------------------------------------------------------------------------------------|

G|------------------------------------------------------------------------------------------------------|
D|------------------------------------------------------------------------------------------------------|
A|--5--5--5--5--5--5--5--5---5--5--5--5--5--5--4--4---2--2--2--2--2--2--2--2---2--2--2--2--2--2--4--4---| 
E|------------------------------------------------------------------------------------------------------|

G|-------------------------------------------------------------------------------------------------------|
D|-------------------------------------------------------------------------------------------------------|
A|--5--5--5--5--5--5--5--5---7--7--5--5--4--5--4--5---2---2--2--2--2--2--2--2---2--2--2--2--2--2--4--4---| 
E|-------------------------------------------------------------------------------------------------------|

G|---------------|
D|---------------|
A|--4--5---------| 
E|--------5--7---|

G|----------------------------------------------------------------------------|
D|-----------------------------------------------------5--4-5---4-------------|
A|----------------------------------------------------------------5-4---------| 
E|--5--5--5-5-5-5----5--5-5---5-5-5----3--3--3-3-3-3--------------------------|

G|------------------------------------------------------------------|
D|----------------------------------------5-4-5-4-------------------|
A|-----------------------------------4-------------5-4--------------| 
E|--5--5--5-5-5-5----5--5-5---5-5-5----3------------------3---------|

[Chorus]
G|---------------------------------------------------------------------------------|
D|---------------------------------------------------------------------------------|
A|--5--5--5--5--5--5--5--5----5--5--5--5--5--5--5--5-------------------------------| 
E|-----------------------------------------------------3--3--3--3--3--3--3--3------|

G|---------------------------------------------------------------------------------|
D|----------------------------------------------------5--5--4--4--2--2-------------|
A|---------------------------2--2--2--2--2--2--2--2---------------------4----------| 
E|--3--3--3--3--3--3--3--3---------------------------------------------------------|

G|---------------------------------------------------------------------------------|
D|--------------------5--5--4-----5--4---------------------------------------------|
A|-----------------------------5--------2--4----5--5--5--5--5--5--5--5-------------| 
E|---3--3--3----3--3---------------------------------------------------------------|

G|---------------------------------------------------------------------------------|
D|---------------------------------------------------------------------------------|
A|--5--5--5--5--5--5--5--5-----------------------------------------2--2--4--4------| 
E|---------------------------3--3--3--3--3--3--3--3----3--3--3--3------------------|

G|--------------------------------------------------------------------------------------------|
D|----------------------------------------------------------------------------5-4---5-4-------|
A|---------------------------5--5--4--4--2--2--4--4-------------------------------5-----2-4---| 
E|--5--5--5--5--5--5--5--5----------------------------3--3--3--3--3--3---3--------------------|

[Outro]
G|---------------------------------------------------------------------------------|
D|---------------------------------------------------------------------------------|
A|--5--5--5--5--5--5--5--5----5--5--5--5--5--5--5--5-------------------------------| 
E|-----------------------------------------------------3--3--3--3--3--3--3--3------|

G|---------------------------------------------------------------------------------|
D|----------------------------------------------------5--5--4--4--2--2-------------|
A|---------------------------2--2--2--2--2--2--2--2---------------------4----------| 
E|--3--3--3--3--3--3--3--3---------------------------------------------------------|

G|---------------------------------------------------------------------------------|
D|--------------------5--5--4-----5--4---------------------------------------------|
A|-----------------------------5--------2--4----5--5--5--5--5--5--5--5-------------| 
E|---3--3--3----3--3---------------------------------------------------------------|

G|---------------------------------------------------------------------------------|
D|---------------------------------------------------------------------------------|
A|--5--5--5--5--5--5--5--5-----------------------------------------2--2--4--4------| 
E|---------------------------3--3--3--3--3--3--3--3----3--3--3--3------------------|

G|--------------------------------------------------------------------------------------------------|
D|--------------------------------------------------------------------------------------------------|
A|---------------------------5--5--4--4--2--2--4--4-------------------------------------------------| 
E|--5--5--5--5--5--5--5--5----------------------------3--3--3--3--3--3--3---3--3--3--3--3--3--3--3--|

G|---------------------------------------------------------------|
D|---------------------------------------------------------------|
A|---------------------------------------------------------------| 
E|--5--5--5--5--5--5--5--5---5--5--5--5--5--5--5--5-----3--------|
            
Submit corrections


        Trusty Chords lessons Hard to play? Try these video lessons and learn fast Trusty Chords lessons
        
↑ Back to top | Tablatures and chords for acoustic guitar and electric guitar, ukulele, drums are parodies/interpretations of the original songs. You may use it for private study, scholarship, research or language learning purposes only