» » »

Hives - No Pun Intended Bass

Artists:  A B C D E F G H I J K L M N O P Q R S T U V W X Y Z # 

No Pun Intended Bass

(ver. 1) Click to play this song!
Hives
 Rating:
4/5 (4 votes)


 No Pun Intended lessons Tabs too difficult? Try these video lessons and learn fast
 
                No Pun Intended

The Hives



G----------------------------------------------------------------------------|
D--------5-5-5-----------------9-9-9-----------------------------------------|
A--2-2-2-------5-5-5-5-5-5-5-5-------9-9-9-9-9-9-9-9--0-0-0--5-5-5-5-5-5-5-5-|
E----------------------------------------------------------------------------|


G-------------------------------------------------------------------|
D--------5-5-5-------9-9-9------------------------------------------|
A--2-2-2-------5-5-5--------9-9-9-9-9-9-9-9--0-0-0--5-5-5-5-5-5-5-5-|
E-------------------------------------------------------------------|


G---------------------------------------------------------------------------|
D--------5-5-5---------------------------------9-9-9------------------------|
A--2-2-2-------5-5-5-5-5-5-5-5-5-5-5-5-5-5-5-5-------9-9-9-9-9-9-9-9--------|
E---------------------------------------------------------------------------|


G---------------------------------------------------------------------------|
D---------------------------------------------------------------------------|
A--0-0-0--5-5-5-5-5-5-5-5---------------------------------------------------|
E---------------------------------------------------------------------------|


G---------------------------------------------------------------------------|
D--------5-5-5---------------------------------9-9-9------------------------|
A--2-2-2-------5-5-5-5-5-5-5-5-5-5-5-5-5-5-5-5-------9-9-9-9-9-9-9-9--------|
E---------------------------------------------------------------------------|


G---------------------------------------------------------------------------|
D---------------------------------------------------------------------------|
A--0-0-0--5-5-5-5-5-5-5-5---------------------------------------------------|
E---------------------------------------------------------------------------|


G---------------------------------------------------------------------------|
D--------5-5-5---------------------------------9-9-9------------------------|
A--2-2-2-------5-5-5-5-5-5-5-5-5-5-5-5-5-5-5-5-------9-9-9-9-9-9-9-9--------|
E---------------------------------------------------------------------------|


G---------------------------------------------------------------------------|
D---------------------------------------------------------------------------|
A--0-0-0--5-5-5-5-5-5-5-5---------------------------------------------------|
E---------------------------------------------------------------------------|


G---------------------------------------------------------------------------|
D--------5-5-5---------------------------------9-9-9------------------------|
A--2-2-2-------5-5-5-5-5-5-5-5-5-5-5-5-5-5-5-5-------9-9-9-9-9-9-9-9--------|
E---------------------------------------------------------------------------|


G---------------------------------------------------------------------------|
D---------------------------------------------------------------------------|
A--0-0-0--5-----------------------------------------------------------------|
E---------------------------------------------------------------------------|


G----------------------------------------------------------------------------|
D--------5-5-5-----------------9-9-9-----------------------------------------|
A--2-2-2-------5-5-5-5-5-5-5-5-------9-9-9-9-9-9-9-9--0-0-0--5-5-5-5-5-5-5-5-|
E----------------------------------------------------------------------------|


G-------------------------------------------------------------------|
D--------5-5-5-------9-9-9------------------------------------------|
A--2-2-2-------5-5-5--------9-9-9-9-9-9-9-9--0-0-0--5-5-5-5-5-5-5-5-|
E-------------------------------------------------------------------|


G---------------------------------------------------------------------------|
D--------5-5-5---------------------------------9-9-9------------------------|
A--2-2-2-------5-5-5-5-5-5-5-5-5-5-5-5-5-5-5-5-------9-9-9-9-9-9-9-9--------|
E---------------------------------------------------------------------------|


G---------------------------------------------------------------------------|
D---------------------------------------------------------------------------|
A--0-0-0--5-5-5-5-5-5-5-5---------------------------------------------------|
E---------------------------------------------------------------------------|


G---------------------------------------------------------------------------|
D--------5-5-5---------------------------------9-9-9------------------------|
A--2-2-2-------5-5-5-5-5-5-5-5-5-5-5-5-5-5-5-5-------9-9-9-9-9-9-9-9--------|
E---------------------------------------------------------------------------|


G---------------------------------------------------------------------------|
D---------------------------------------------------------------------------|
A--0-0-0--5-5-5-5-5-5-5-5---------------------------------------------------|
E---------------------------------------------------------------------------|


G---------------------------------------------------------------------------|
D--------5-5-5---------------------------------9-9-9------------------------|
A--2-2-2-------5-5-5-5-5-5-5-5-5-5-5-5-5-5-5-5-------9-9-9-9-9-9-9-9--------|
E---------------------------------------------------------------------------|


G---------------------------------------------------------------------------|
D---------------------------------------------------------------------------|
A--0-0-0--5-5-5-5-5-5-5-5---------------------------------------------------|
E---------------------------------------------------------------------------|


G---------------------------------------------------------------------------|
D--------5-5-5---------------------------------9-9-9------------------------|
A--2-2-2-------5-5-5-5-5-5-5-5-5-5-5-5-5-5-5-5-------9-9-9-9-9-9-9-9--------|
E---------------------------------------------------------------------------|


G---------------------------------------------------------------------------|
D---------------------------------------------------------------------------|
A--0-0-0--5-5-5-5-5-5-5-5---------------------------------------------------|
E---------------------------------------------------------------------------|


G---------------------------------------------------------------------------|
D-----------9-9--9-9--------------------------------------------------------|
A--9-9--9-9-----------5---7---5---7---5-5-5-5-5-5-5-5-5-5-5-5---7-7---7-7---|
E---------------------------------------------------------------------------|


G---------------------------------------------------------------------------|
D----------------------------------------------9-9-9------------------------|
A--------------5-5-5-5-5-5-5-5-5-5-5-5-5-5-5-5-------9-9-9-9-9-9-9-9--------|
E---------------------------------------------------------------------------|


G---------------------------------------------------------------------------|
D---------------------------------------------------------------------------|
A--0-0-0--5-5-5-5-5-5-5-5---------------------------------------------------|
E---------------------------------------------------------------------------|


G---------------------------------------------------------------------------|
D--------5-5-5---------------------------------9-9-9------------------------|
A--2-2-2-------5-5-5-5-5-5-5-5-5-5-5-5-5-5-5-5-------9-9-9-9-9-9-9-9--------|
E---------------------------------------------------------------------------|


G---------------------------------------------------------------------------|
D---------------------------------------------------------------------------|
A--0-0-0--5-5-5-5-5-5-5-5---------------------------------------------------|
E---------------------------------------------------------------------------|


G---------------------------------------------------------------------------|
D--------5-5-5---------------------------------9-9-9------------------------|
A--2-2-2-------5-5-5-5-5-5-5-5-5-5-5-5-5-5-5-5-------9-9-9-9-9-9-9-9--------|
E---------------------------------------------------------------------------|


G---------------------------------------------------------------------------|
D---------------------------------------------------------------------------|
A--0-0-0--5-5-5-5-5-5-5-5---------------------------------------------------|
E---------------------------------------------------------------------------|


G---------------------------------------------------------------------------|
D--------5-5-5---------------------------------9-9-9------------------------|
A--2-2-2-------5-5-5-5-5-5-5-5-5-5-5-5-5-5-5-5-------9-9-9-9-9-9-9-9--------|
E---------------------------------------------------------------------------|


G---------------------------------------------------------------------------|
D---------------------------------------------------------------------------|
A--0-0-0--5-----------------------------------------------------------------|
E---------------------------------------------------------------------------|
            
Submit corrections



        No Pun Intended lessons Hard to play? Try these video lessons and learn fast No Pun Intended lessons
        
↑ Back to top | Tablatures and chords for acoustic guitar and electric guitar, ukulele, drums are parodies/interpretations of the original songs. You may use it for private study, scholarship, research or language learning purposes only