» » »

Hives - Hate 2 Say I Told U So Bass

Artists:  A B C D E F G H I J K L M N O P Q R S T U V W X Y Z # 

Hate 2 Say I Told U So Bass

(ver. 1) Click to play this song!
Hives
 Rating:
4/5 (4 votes)


 Hate 2 Say I Told U So lessons Tabs too difficult? Try these video lessons and learn fast
 
                Song - Hate To Say I Told You So
Artist - The Hives
Tuning- Standard (EADG)

INTRO/OUTRO

E----------------------------------------------------------
A----------------------------------------------------------
D--9-9-0------------7-7-0-------3-3-3-3------------
G------------7-7-0--------------------------------------


During "Hate To Say I Told You So" & "Do Believe I Told You So"

( It would be pointless to say how many times to do this is easy to figure it out)
E----------------------------------------------------------
A----------------------------------------------------------
D----------------------------------------------------------
G-0-------------------------------------------------------

SOLO
( The rhythm is faster here)

E--------------------------------------------------------
A--------------------------------------------------------
D--9-9-0-----------6-6-0--------3-3-3-3----------
G-----------6-6-0-------------------------------------


CONGRATS YOU A BETTER BASSIST NOW!!!!!!
            
Submit corrections



        Hate 2 Say I Told U So lessons Hard to play? Try these video lessons and learn fast Hate 2 Say I Told U So lessons
        
↑ Back to top | Tablatures and chords for acoustic guitar and electric guitar, ukulele, drums are parodies/interpretations of the original songs. You may use it for private study, scholarship, research or language learning purposes only