» » »

Hedley - Villain Tabs

Artists:  A B C D E F G H I J K L M N O P Q R S T U V W X Y Z # 

Villain Tabs

(ver. 2) Click to play this song!
Hedley
 Rating:
4/5 (4 votes)

 Villain lessons Tabs too difficult? Try these video lessons and learn fast
 
                ok, the opening track on Hedley's album, and definetly one of the best songs in my 
thought id tab it out.

Tuning: Tuned down one half step (Eb Ab Db Gb Bb eb)

.(above tab)= palm muted
.(beside notes)= staccato
/= slide up
\= slide down
hb= half bend
fb= full bend
qb= quarter bend
rb= release bend
~(in verses)= let ring
~(in solo)= vibrato

Intro- for the intro the first thing is with a little bit of wah and a little delay
e|----3~~------3~~--------3--3--3--3--3--3--3--3--3--3--3~~~--------|
B|-----0~~------0~~--------0--0--0--0--0--0--0--0--0--0--0~~~-------|
G|---5~~------5~~-------55--5--5--5--5--5--5--5--5--5--5--5~~~------|
D|------------------------------------------------------------------|
A|------------------------------------------------------------------|
E|------------------------------------------------------------------|

Just keep playing that until the bass intro riff finishes

Verse- use delay when letting E5 chord ring out
e|------------------------------------------------------------------|
B|----------------------------------------------0~~-----------------|
G|-------------------9.--7.---------------------0~~-----------------| cont.
D|---7777-55-33333---9.--7.-----7777-55--33333--9~~--7777-55-33333--| on next
A|---7777-55-33333---7.--5.-----7777-55--33333--7~~--7777-55-33333--| line
E|---5555-33-11111---7.--5.-----5555-33--11111-------5555-33-11111--|

e|---------------------|
B|---------------------|
G|---9.--7.------------|
D|---9.--7.---7777-55--|
A|---7.--5.---7777-55--|
E|---7.--5.---5555-33--|

Pre-Chorus
e|------------------------------|
B|------------------------------|
G|------------------------------|
D|---3333-5555-7777-10101010----|
A|---3333-5555-7777-10101010----|
E|---1111-3333-5555-8-8-8-8-----|


Chorus
e|--------------------------------------------------------------|
B|--------------------------------------------------------------|
G|--------------------------------------------------------------| cont. on
D|---33333333-55555555-777777777777-2222--33333333-55555555-----| next line
A|---33333333-55555555-777777777777-2222--33333333-55555555-----|
E|---11111111-33333333-555555555555-0000--11111111-33333333-----|


e|----------------------------------------------------------|
B|----------------------------------------------------------|
G|----------------------------------------------------------|
D|---777777777777-X2---33~~/55~~/77~~/1010~~\33333333-55----|
A|---777777777777-X2---33~~/55~~/77~~/1010~~\33333333-55----|
E|---555555555555-X0---11~~/33~~/55~~/8-8-~~\11111111-33----|

Verse 2
e|---------------------------------------3--3.---------------------|
B|------------------0~~-------------------0------------------------|
G|------------------0~~-----------------5--5-----------------9.-7.-| cont. on
D|---7777-55-33333--9~~--7777-55-33333--------7777-55-33333--9.-7.-| next
A|---7777-55-33333--7~~--7777-55-33333--------7777-55-33333--7.-5.-| line
E|---5555-33-11111-------5555-33-11111--------5555-33-11111--7.-5.-|

e|--------------|
B|--------------|
G|--------------|
D|---7777-55----|
A|---7777-55----|
E|---5555-33----|

Pre-Chorus
e|------------------------------|
B|------------------------------|
G|------------------------------|
D|---3333-5555-7777-10101010----|
A|---3333-5555-7777-10101010----|
E|---1111-3333-5555-8-8-8-8-----|

Chorus
e|--------------------------------------------------------------|
B|--------------------------------------------------------------|
G|--------------------------------------------------------------| cont. on
D|---33333333-55555555-777777777777-2222--33333333-55555555-----| next line
A|---33333333-55555555-777777777777-2222--33333333-55555555-----|
E|---11111111-33333333-555555555555-0000--11111111-33333333-----|


e|---------------------------------------------------------------|
B|---------------------------------------------------------------|
G|---------------------------------------------------------------|
D|---777777777777-X2---33~~/55~~/77~~/1010~~\33333333-55555555---|
A|---777777777777-X2---33~~/55~~/77~~/1010~~\33333333-55555555---|
E|---555555555555-X0---11~~/33~~/55~~/8-8-~~\11111111-33333333---|

Bridge
e|---------------------------------------------------------|
B|---------------------------------------------------------|
G|---------------------------------------------------------|
D|---777-555-101010-77-55-77---777-555-101010-77-55-77-----|
A|---XXX-XXX-X-X-X--XX-XX-XX---XXX-XXX-X-X-X--XX-XX-XX-----|
E|---555-333-8-8-8--55-33-55---555-333-8-8-8--55-33-55-----|


Guitar Solo
e|------------------------------------------------------|
B|-------------------------------------8-5----8-5-8~~~~~|
G|----------------5-5-7hbrb5---5hb---5------5-----------|
D|---5555~~~~--5/7-7--------7~~----/7-7-7-/7-7-7-7------|
A|------------------------------------------------------|
E|------------------------------------------------------|

Breakdown- clean electric for the first 2 times played
e|-------------------------------------------------------------------|
B|-------------------------------------------------------------------|
G|-------------------------------------------------------------------| cont.
D|---77777777-9999-10101010-333333333222222-77777777-9999-10101010---| on
A|---77777777-9999-10101010-333333333333333-77777777-9999-10101010---| next
E|---55555555-7777-8-8-8-8--111111111111111-55555555-7777-8-8-8-8----| line

     ........ .... . . . .  ............... ........ .... . . . .
e|-------------------------------------------------------------------|
B|-------------------------------------------------------------------|
G|-------------------------------------------------------------------| cont.
D|---77777777-9999-10101010-333333333222222-77777777-9999-10101010---| on
A|---77777777-9999-10101010-333333333333333-77777777-9999-10101010---| next
E|---55555555-7777-8-8-8-8--111111111111111-55555555-7777-8-8-8-8----| line

     ....
e|------------------------|
B|------------------------|
G|-----------77777777-----|
D|---33333333XXXXXXXX-----|
A|---3333333355555555-----|
E|---11111111-------------|

Final Chorus
e|------------------------------------------------------------------|
B|------------------------------------------------------------------|
G|---1010101010101010-1212121212121212------------------------------| cont.
D|---X-X-X-X-X-X-X-X--X-X-X-X-X-X-X-X--777-999-101010-121212-141414-| on
A|---8-8-8-8-8-8-8-8--1010101010101010-XXX-XXX-X-X-X--X-X-X--X-X-X--| next
E|-------------------------------------555-777-8-8-8--101010-121212-| line

e|------------------------------------------------------------------|
B|------------------------------------------------------------------|
G|---1010101010101010-1212121212121212------------------------------| cont.
D|---X-X-X-X-X-X-X-X--X-X-X-X-X-X-X-X--777-999-101010-121212-141414-| on
A|---8-8-8-8-8-8-8-8--1010101010101010-XXX-XXX-X-X-X--X-X-X--X-X-X--| next
E|-------------------------------------555-777-8-8-8--101010-121212-| line

e|-----------------------------------------------------------------|
B|-----------------------------------------------------------------|
G|---77777777----------55555555----------77777777----------55555555| cont.
D|---77777777-33333333-55555555-55555555-77777777-33333333-55555555| on
A|---55555555-33333333-33333333-55555555-55555555-33333333-33333333| next
E|------------11111111----------33333333----------11111111---------| line

              |Outro
e|--------------------------------------------------------------|
B|--------------------------------------------------------------|
G|--------------------------------------------------------------| cont. on
D|---55555555-33333333-55555555-777-999-101010-121212-141414----| next line
A|---55555555-33333333-55555555-XXX-XXX-X-X-X--X-X-X--X-X-X-----|
E|---33333333-11111111-33333333-555-777-8-8-8--101010-121212----|

e|--------------------------------------------------------------|
B|--------------------------------------------------------------|
G|--------------------------------------------------77777777----| cont. on
D|---33333333-55555555-777-999-101010-121212-141414-77777777----| next line
A|---33333333-55555555-XXX-XXX-X-X-X--X-X-X--X-X-X--55555555----|
E|---11111111-33333333-555-777-8-8-8--101010-121212-------------|

e|--------------------------------------------|
B|--------------------------------------------|
G|--------------------------------------------| Now just repeat the octave
D|---33333333-777-999-101010-121212-141414----| riff 2 more times and then
A|---33333333-XXX-XXX-X-X-X--X-X-X--X-X-X-----| end on...
E|---11111111-555-777-8-8-8--101010-121212----|

End on this...
e|-------------|
B|-------------|
G|-------------|
D|---77~~~-----|
A|---77~~~-----|
E|---55~~~-----|

And thats he whole song, its a f**king amazing song, by a f**king amazing band, and have 
with it. and dont forget to rate!!!
            
Submit corrections


        Villain lessons Hard to play? Try these video lessons and learn fast Villain lessons
        
↑ Back to top | Tablatures and chords for acoustic guitar and electric guitar, ukulele, drums are parodies/interpretations of the original songs. You may use it for private study, scholarship, research or language learning purposes only