» » »

H-Blockx - Little Girl Bass

Artists:  A B C D E F G H I J K L M N O P Q R S T U V W X Y Z # 

Little Girl Bass

(ver. 2) Click to play this song!
H-Blockx
 Rating:
4/5 (4 votes)


 Little Girl lessons Tabs too difficult? Try these video lessons and learn fast
 
                Here is my Bass Tab to this old-school song, Little Girl by H-Blockx.
Hear this song carefully before playing it on Bass because of the rythym.
I tried to wrote it with the length of the various notes. Those length might be 
not correct in all cases but most of this stuff should be correct.

Please rate this tab and check out other tabs of me!

Have Fun learning this song! ;)

Intro/Chorus
G|----------------|----------------|----------------|----------------|
D|----------------|----------------|--------5~~~--4~|~~--------5~~~--|
A|------------3~~~|~~~~~~~3~~~~----|------------5---|--5-5-5-5-----5-|
E|5-5-5-5-5-5-----|------------0~~~|3~~~3-3---------|----------------|
  E E E E E E Q    Q.     Q    Q    Q   E E Q   E E  E E E E E Q   E

G|----------------|----------------|----------------|----------------|
D|----------------|----------------|--------5~~~--4~|~~--------5~~~--|
A|------------3~~~|~~~~~~~3~~~~----|------------5---|--5-5-5-5-----5-| 
E|4-5-5-5-5-5-----|------------0~~~|3~~~3-3---------|----------------|
  E E E E E E Q    Q.     Q    Q    Q   E E Q   E E  E E E E E Q   E

G|----------------|----------------|----------------|----------------|
D|----------------|----------------|--------5~~~--4~|~~--------5~~~--|
A|------------3~~~|~~~~~~~3~~~~----|------------5---|--5-5-5-5-----5-| 
E|4-5-5-5-5-5-----|------------0~~~|3~~~3-3---------|----------------|
  E E E E E E Q    Q.     Q    Q    Q   E E Q   E E  E E E E E Q   E

G|----------------|----------------|----------------|
D|----------------|----------------|----------------|
A|------------3~~~|~~~~~~~3~~~~0~~~|2~~~~~~~2-2-2-2-|
E|4-5-5-5-5-5-----|----------------|----------------|
  E E E E E E Q    Q.     Q    Q    H       E E E E

Verse
G|----------------|----------------|----------------|----------------|
D|----------------|--2~~5~~--------|----------------|--2~~5~~--------|
A|----------------|--------5~~5----|3---------------|--------3~~~2~~~| 4x
E|0-0---------0~~~|0---------------|--0-0-------0~~~|0---------------|
  E E H       Q    E E. E. E. E SE  E E E Q.    Q    E E. E. Q   Q

Pre-Chorus
G|----------------|----------------|----------------|----------------|
D|----------------|------------3~~~|--------2~~~----|----------------|
A|----------------|------3-0-3-----|----2~~~----2~~~|----2~~~----2~~~|
E|1~~~~~~~~~~~5~~~|~~~~~~----------|0~~~------------|0~~~----0~~~----|
  H.          Q    Q.    E E E Q    Q   Q   Q   Q    Q   Q   Q   Q

Chorus (as before)

Short Bass Solo
G|----------------|-----7-79-7~~~~~|----------------|-----7----------|
D|----------------|--579-9--5------|----------------|--579-9---------|
A|--------5~~~7---|57--------------|--------5~~~7---|57------3~~~2~~~|
E|0~~0------------|----------------|0~~0------------|----------------|
  E. E E. Q   E E  SSSSSSSSSSQ.     E. E E. Q   E E  SSSSSSE Q   Q

Verse
Pre-Chorus

Chorus Variation
G|----------------|----------------|----------------|----------------|
D|----------------|----------------|--------5~~~--4~|~~--------5~~~--|
A|------------3~~~|~~~~~~~3~~~~----|------------5---|--5-5-5-5-----5-|
E|5-5-5-5-5-5-----|------------0~~~|3~~~3-3---------|----------------|
  E E E E E E Q    Q.     Q    Q    Q   E E Q   E E  E E E E E Q   E
G|----------------|----------------|----------------|----------------|
D|----------------|----------------|--------5~~~--4~|~~--------5~~~--|
A|------------3~~~|~~~~~~~3~~~~----|------------5---|--5-5-5-5-----5-| 3x 
E|4-5-5-5-5-5-----|------------0~~~|3~~~3-3---------|----------------|
  E E E E E E Q    Q.     Q    Q    Q   E E Q   E E  E E E E E Q   E

Open the Bridge with the Pre-Chorus-Part, then
G|----------------|----------------|----------------|
D|----------------|----------------|4~~~------------|
A|------------3~~~|~~~~~~----------|----5~~~~~~~3~~~| 2x
E|5~~~~~~~~~~~----|------0-1-2~~3~~|----------------|
  H.          Q    Q.    E E E. E.  Q   H       Q

G|----------------|----------------|----------------|
D|----------------|----------------|4~~~------------|
A|------------3~~~|~~~~~~----------|----5~~~~~3~~2~~| 4x
E|5~~~~~~~~~~~----|------0-1-2~~3~~|----------------|
  H.          Q    Q.    E E E. E.  Q   Q.    E. E.

Last Chorus
G|----------------|----------------|----------------|
D|----------------|----------------|4~~~------------|
A|------------3~~~|~~~~~~----------|----5~~~~~3~~2~~| 3x
E|5~~~~~~~~~~~----|------0-1-2~~3~~|----------------|
  H.          Q    Q.    E E E. E.  Q   Q.    E. E.

G|----------------|----------------|----------------|
D|----------------|----------------|----------------|
A|------------3~~~|~~~~~~5-5-5-5-5-|5-5-5-5-5-5-5-5-|
E|5~~~~~~~~~~~----|----------------|----------------|
  H.          Q    Q     E E E E E  E E E E E E E E

G|----------------|----------------|----------------|----------------|
D|----------------|----------------|--------7~~~--6~|~~--------7~~~--|
A|------------5~~~|~~~~~~~5~~~~----|------------7---|--7-7-7-7-----7-|
E|7-7-7-7-7-7-----|------------2~~~|5~~~5-5---------|----------------|
  E E E E E E Q    Q.     Q    Q    Q   E E Q   E E  E E E E E Q   E

G|----------------|----------------|----------------|----------------|
D|----------------|----------------|--------7~~~--6~|~~--------7~~~--|
A|------------5~~~|~~~~~~~5~~~~----|------------7---|--7-7-7-7-----7-| 3x
E|6-7-7-7-7-7-----|------------2~~~|5~~~5-5---------|----------------|
  E E E E E E Q    Q.     Q    Q    Q   E E Q   E E  E E E E E Q   E

Outro
G|----------------|----------------|
D|----------------|----------------|
A|------------5~~~|~~~~~~~~~~~~~~~~|
E|6-7-7-7-7-7-----|----------------|
  E E E E E E Q    W

F = Full note
H = Half note
Q = Quarter note
E = Eighth note
S = Sixteenth note
. = makes the note a half longer
\ = Slide up
/ = Slide down
h = Hammer-on
p = Pull-off
b = Bending
X = Mute note
            
Submit corrections



        Little Girl lessons Hard to play? Try these video lessons and learn fast Little Girl lessons
        
↑ Back to top | Tablatures and chords for acoustic guitar and electric guitar, ukulele, drums are parodies/interpretations of the original songs. You may use it for private study, scholarship, research or language learning purposes only