» » »

Hawk Nelson - Live Life Loud Bass

Artists:  A B C D E F G H I J K L M N O P Q R S T U V W X Y Z # 

Live Life Loud Bass

(ver. 1) Click to play this song!
Hawk Nelson
 Rating:
4/5 (4 votes)


 Live Life Loud lessons Tabs too difficult? Try these video lessons and learn fast
 
                Standard Tuning

Come In AT 0:12                                                       x2
G| |-----------------------------------------------------------------| |
D|o|-----------------------------------------------------------------|o|
A|o|-----------------------------------------------------------------|o|
E| |-0-0-0-0-0-0-0-0-4-4-4-4-4-4-4-4-9-9-9-9-9-9-9-9-5-5-5-5-5-5-5h7-| |

|-------------------------------------------------------------------------|
|-------------------------------------------------------------------------|
|--------/9--9-9--10--10-10-----------------------------------------------|
|-0--0-0---------------------5-5-5h7p5--0--0-0--2--2-2--4--4-4--5-5-5h7p5-|

|-----------------------------------------------------------------|
|-----------------------------------------------------------------|
|-----------------------------------------------------------------|
|-0-0-0-0-0-0-0-0-2-2-2-2-2-2-2-2-4-4-4-4-4-4-4-4-5-5-5-5-5-5-5-5-|

|---------------------------------------------------|
|---------------------------------------------------|
|---------------------------------------------------|
|-0-0-0-0-0-0-0-0-2-2-2-2-2-2-2-2-5-5-5-5-5-5-5-5-4-|
                                                 x2
| |---------------------------------------------| |
|o|---------------------------------------------|o|
|o|---------------------------------------------|o|
| |-0--0-0--0--4--4-4--4--9--9-9--9--5--5-5h7p5-| |
                                            x2
| |----------------------------------------| |
|o|----------------------------------------|o|
|o|----------------------------------------|o|
| |-0--0-0--4--4-4-4--9--9-9--5--5-5-5-5h7-| |

|------------------------------------------|
|------------------------------------------|
|------------------------------------------|
|-0--0-0--2--2-2p0h2--4--4-4--5--5-5-5h7p5-|

|-------------------------------------|
|-------------------------------------|
|-------------------------------------|
|0--0-0--2--2-2--4--4-4--5--5-5-5h7p5-|

Short Pause

|--------------------------------------------------------------------|
|------------------------------------7-7-7-7-7-7-7-7-5-5-5-5-5-5-5-5-|
|-/7-7-7-7-7-7-7-7-7-9-9-9-9-9-9-9-9---------------------------------|
|--------------------------------------------------------------------|
                                                 x2
| |---------------------------------------------| |
|o|---------------------------------------------|o|
|o|---------------------------------------------|o|
| |-0--0-0--0--4--4-4--4--9--9-9--9--5--5-5h7p5-| |

|-------------------------------------------------|
|-------------------------------------------------|
|-------------------------------------------------|
|-5--5--7--7--4--4--5--5--5--5--7--7--4--4--5--5--|

|-----------------------------------------------------------------|
|-----------------------------------------------------------------|
|-----------------------------------------------------------------|
|-5-5-5-5-7-7-7-7-4-4-4-4-9-9-7-7-5-5-5-5-7-7-7-7-4-4-4-4-5-5-5-5-|

Short Pause

|------|
|-/18\-|
|------|
|------|
                                                                     x2
| |-----------------------------------------------------------------| |
|o|-----------------------------------------------------------------|o|
|o|-----------------------------------------------------------------|o|
| |-0-0-0-0-0-0-0-0-4-4-4-4-4-4-4-4-9-9-9-9-9-9-9-9-5-5-5-5-5-5-5h7-| |
                                                 x2
| |---------------------------------------------| |
|o|---------------------------------------------|o|
|o|---------------------------------------------|o|
| |-0--0-0--0--4--4-4--4--9--9-9--9--5--5-5h7p5-| |
                                            
|----------------------------------------|
|----------------------------------------|
|----------------------------------------|
|-0--0-0--4--4-4-4--9--9-9--5--5-5-5-5h7-|

|-----------------------------------|
|-----------------------------------|
|-----------------------------------|
|-0--0-0--4--4-4-4--9-9-7-7-5-5-4-4-|

END
Thanks For Viewing!
            
Submit corrections



        Live Life Loud lessons Hard to play? Try these video lessons and learn fast Live Life Loud lessons
        
↑ Back to top | Tablatures and chords for acoustic guitar and electric guitar, ukulele, drums are parodies/interpretations of the original songs. You may use it for private study, scholarship, research or language learning purposes only