» » »

Hatebreed - Perseverance Bass

Artists:  A B C D E F G H I J K L M N O P Q R S T U V W X Y Z # 

Perseverance Bass

(ver. 1) Click to play this song!
Hatebreed
 Rating:
4/5 (4 votes)


 Perseverance lessons Tabs too difficult? Try these video lessons and learn fast
 
                -------------------------------------------------------------------------------
			     PERSEVERANCE - Hatebreed
-------------------------------------------------------------------------------


Tuning: C G C F (drop C)

Intro

F|----------------|----------------|----------------|
C|----------------|----------------|----------------|
G|----------2-4-5-|----------------|----------------|
C|0-0-0-0-0-------|0---------------|----------------|


Figure 1

   p                                 p
F|----------------|----------------|----------------|----------------|
C|----------------|----------------|----------------|----------------|
G|----------------|----------------|----------------|----------------|
C|87------------0-|-/4---2-0-------|76------------0-|-/3--1-0--------|


Figure 2

F|----------------|----------------|----------------|----------------|
C|----------------|----------------|----------------|----------------|
G|----------------|----------------|----------------|----------2-4-5-|
C|1-0-0---1-0-0---|1-0-0---1-0-0---|1-0-0---1-0-0---|1-0-0-0-0-------|


Figure 3a

F|----------------|----------------|----------------|----------------|
C|----------------|----------------|----------------|----------------|
G|----------------|----------------|----------------|----------2-4-5-|
C|0---------------|----------------|0-0-0-0-0-0-0-0-|0-0-0-0-0-------|


Figure 3b

F|----------------|----------------|----------------|----------------|
C|----------------|----------------|----------------|----------------|
G|----------------|----------------|----------------|----------2-4-5-|
C|0---0---0---0---|0---0---0---0---|0-0-0-0-0-0-0-0-|0-0-0-0-0-------|


Outro

F|----------------|
C|----------------|
G|----------------|
C|0---------------|


Structure

Intro
Figure 1	x4
Figure 2	x2
Figure 3a
Figure 2	x4
Figure 1	x4
Figure 2	x2
Figure 3b
Figure 2	x4
Outro


| /  slide up
| \  slide down
| h  hammer-on
| p  pull-off
| ~  vibrato
| +  harmonic
| x  Mute note
===============================================================================
            
Submit corrections



        Perseverance lessons Hard to play? Try these video lessons and learn fast Perseverance lessons
        
↑ Back to top | Tablatures and chords for acoustic guitar and electric guitar, ukulele, drums are parodies/interpretations of the original songs. You may use it for private study, scholarship, research or language learning purposes only