» » »

Haste The Day - Closest Thing To Closure Bass

Artists:  A B C D E F G H I J K L M N O P Q R S T U V W X Y Z # 

Closest Thing To Closure Bass

(ver. 1) Click to play this song!
Haste The Day
 Rating:
4/5 (4 votes)


 Closest Thing To Closure lessons Tabs too difficult? Try these video lessons and learn fast
 
                drop C tuning

there is no bass for the first part when he is singing

come in on "i keept my mouth shut..."

|--------------------------------------------|
|--------------------------------------------|
|7h8-5--7h8------7h8-5-10101010--88----------|
|------------000-----------------------------|x2

stop for singing then play that part two more times
Bridge
|---------------------------------------------------------------------------|
|-------3h5---------3h5--0-0-0-3h5-0-0-0--3h5--------3h5--------3h3---------|
|1-1-1-------3-3-3----------------------------1-1-1-------3-3-3------0000000|
|---------------------------------------------------------------------------|
play that eight times

then into the chorus

|---------------------------------------------------|
|---------------------------------------------------|
|5[x8]---3[x8]----1[x4]----0[x4]-------5-55-8-5-55-7|
|---------------------------------------------------|x4

outro:

|----------------------------------------------|
|----------------------------3h5---------------|
|555555-111111-333333-111111------3------------|
|----------------------------------------------|x4


|---------------|
|---------------|
|---------------|
|0000--0000-----|

the intro could be a bit off and ik the timeing is a bit off so just listen to the song
get a good idea of what i mean and ik i forgot the hammer ons and pull offs in the
and outro i think if u just use the hammer ons from the bridge and just allternate 
hammer ons and pull offs it should sound ok. plz rate and add any corecting you find

Rock On!!!!!!!!
            
Submit corrections



        Closest Thing To Closure lessons Hard to play? Try these video lessons and learn fast Closest Thing To Closure lessons
        
↑ Back to top | Tablatures and chords for acoustic guitar and electric guitar, ukulele, drums are parodies/interpretations of the original songs. You may use it for private study, scholarship, research or language learning purposes only