» » »

Haste The Day - Autumn Chords

Artists:  A B C D E F G H I J K L M N O P Q R S T U V W X Y Z # 

Autumn Chords

(ver. 2) Click to play this song!
Haste The Day
 Rating:
4.2/5 (5 votes)


 Autumn lessons Tabs too difficult? Try these video lessons and learn fast
 
                -------------------------------------------------------------------------------
                             Autumn- Haste the Day
-------------------------------------------------------------------------------

Tuning: half step down but sounds fine in standard. depends on whos singing i guess...


btw, this is the Dreamer version of the song and listen to the song for strumming patterns...



VERSE:

e|---0-----------------0---------------------0--0----0-|
B|---0-----------------0---------------------0--0----0-|
G|---0-----------------0---------------------0--0----0-|
D|---5-----------------4---------------------7--5----2-|
A|---7-----------------5---------------------9--7----3-|
E|---0-----------------0---------------------0--0----0-|

     red leaves        blow                  in the  wind....
     
e|---0-----------------0---------------------0--0----0-|
B|---0-----------------0---------------------0--0----0-|
G|---0-----------------0---------------------0--0----0-|
D|---5-----------------4---------------------7--5----2-|
A|---7-----------------5---------------------9--7----3-|
E|---0-----------------0---------------------0--0----0-|
     
     leaving home and  everything it's       known behind....

e|---0-----------------0---------------------0------0-|
B|---0-----------------7---------------------5------5-|
G|---5-----------------7---------------------5------5-|
D|---7-----------------7---------------------5------5-|
A|---0-----------------0---------------------0------3-|
E|---0-----------------0---------------------0------0-|

     barren branches   wave                  goodbye....

e|---0-----------------0---------------------0--0----0-|
B|---0-----------------0---------------------0--0----0-|
G|---0-----------------0---------------------0--0----0-|
D|---5-----------------4---------------------7--5----2-|
A|---7-----------------5---------------------9--7----3-|
E|---0-----------------0---------------------0--0----0-|

     as the            red leaves            slowly  die....



CHORUS:

e|---0-----------------0---------------------0------0-|
B|---0-----------------7---------------------5------5-|
G|---5-----------------7---------------------5------5-|
D|---7-----------------7---------------------5------5-|
A|---0-----------------0---------------------0------3-|
E|---0-----------------0---------------------0------0-|

     every flower      stares and          watches....

e|---0-----------------0---------------------0------0-|
B|---0-----------------7---------------------5------5-|
G|---5-----------------7---------------------5------5-|
D|---7-----------------7---------------------5------5-|
A|---0-----------------0---------------------0------3-|
E|---0-----------------0---------------------0------0-|

     as the            wind takes me       aw-ay....

e|---0-----------------0---------------------0------0-|
B|---0-----------------7---------------------5------5-|
G|---5-----------------7---------------------5------5-|
D|---7-----------------7---------------------5------5-|
A|---0-----------------0---------------------0------3-|
E|---0-----------------0---------------------0------0-|

     Before        the sun shone upon        me

e|---0-----------------0---------------------0------0-|
B|---0-----------------7---------------------5------5-|
G|---5-----------------7---------------------5------5-|
D|---7-----------------7---------------------5------5-|
A|---0-----------------0---------------------0------3-|
E|---0-----------------0---------------------0------0-|

     Now           the wind      it takes me away


after that, the chorus is repeated once more with some vocal variations.
            
Submit corrections



        Autumn lessons Hard to play? Try these video lessons and learn fast Autumn lessons
        
↑ Back to top | Tablatures and chords for acoustic guitar and electric guitar, ukulele, drums are parodies/interpretations of the original songs. You may use it for private study, scholarship, research or language learning purposes only