» » »

Harvey Danger - Why I'm Lonely Bass

Artists:  A B C D E F G H I J K L M N O P Q R S T U V W X Y Z # 

Why I'm Lonely Bass

(ver. 1) Click to play this song!
Harvey Danger
 Rating:
4/5 (4 votes)


 Why I'm Lonely lessons Tabs too difficult? Try these video lessons and learn fast
 
                -------------------------------------------------------------------------------
                             WHY I'M LONELY - Harvey Danger
-------------------------------------------------------------------------------

I've really wanted to play this for a while but couldn't find it online so I
basically every part of the song, and I listened to the track as closely
as possible to try and get every note.

Enjoy!

G--------------------------------------------------------------------|
D----------------------------------------------4---------------------|
A-2---4--6-6-4--3--2---4--3-----------2---4--6---6-4--2---4--3-------|
E-----------------------------2-4-2-4----------------------------4-4-|

G-------------------------------------------------------------------|
D------------------------------------------4------------------------|
A-2---4--6-6-4--4-2---4--3--------2---4--6---6-4--2---4--3-----3--2-|
E----------------------------4-4-----------------------------4------|

G-------------------------------------------------|
D---------------------------------------------4-6-|
A--4--3----------2---4--3------------2---4--6-----|
E---------2-4-4-------------2/4-4\0---------------|

G--------------------------------------------------------------------|
D--------------------------4-----------------------------------------|
A-2---4--3---3-3--2---4--6---6-4--2---4--3---3-3--2---4--3-----------|
E------------------------------------------------------------2-4-2-4-|

G---------------------|
D---------------------|
A--2---4--3-----------|
E-------------2/4-2/4-|

G----------------------------------------------------------------|
D-------------------------------------------------2--------------|
A-2---------------2---------------0------------------------------|
E----------------------------------------------------------------|

Guitar Solo (No Bass) 

Come back in at 1:37
G----------------------------------------------------------------|
D------------------------------------------4---------------------|
A-2---4--6-6-4--4-2---4--3-----3--2---4--6---6----2---4--3---3-3-|
E----------------------------4-----------------------------------|

G----------------------------------------------------|
D------------------------------------------------4-6-|
A-2---4--3----------2---4--3------------2---4--6-----|
E------------2-4-4-------------2-4-4-----------------|

G------------------------------------------------|
D--------------------------4---------------------|
A-2---4--3---3-3--2---4--6---6-4--2---4--3-------|
E--------------------------------------------2-4-|

G-----------------------------------------------------------------|
D-------------------------------------------------2---------------|
A-2---------------2---------------0-------------------------------|
E-----------------------------------------------------------------|

G---------------------------------------|
D-222-111------------222-111------------|
A---------2222222222---------0000000000-|
E---------------------------------------|(x2)

G--------------------|
D-222-111------------|
A---------22222220---|
E------------------4-|

G---------------------------|
D---------------------------|
A-2-2--2-2--2--2-2--222-222-|
E---------------------------|

G----------------------------------------------------|
D----------------------------------------------------|
A-2-2-2--4-4-4-6--6--6--6--6-2-2-2--4-4-4-3-3--------|
E----------------------------------------------2-4-4-|

G-------------------------------------------------------|
D-------------------------------------------------6--6--|
A-2-2-2--4-4-4--6--6--6--6--6--2-2-2--4-4-4-3--3--------|
E-------------------------------------------------------|

G--------------------------------------------------|
D--------------------------------------------------|
A-2-2-2--4-4-4--6--6666666--2-2-2-4-4-4-3--3-------|
E---------------------------------------------2--4-|

G----------------------------------------------------------------|
D------------------------------------4--6------------------------|
A-2-2--4-4--3--3333333--2-2--4-4--3---------2-2--4-4--3--3333333-|
E----------------------------------------------------------------|

G------------------------------------------------------|
D------------------------------------4--6--------------|
A-2-2--4-4--3--3333333--2-2--4-4--3--------2-2--4-4--3-|
E------------------------------------------------------|

| /  slide up
| \  slide down
| h  hammer-on
| p  pull-off
| ~  vibrato
| +  harmonic
| x  Mute note
===============================================================================
            
Submit corrections



        Why I'm Lonely lessons Hard to play? Try these video lessons and learn fast Why I'm Lonely lessons
        
↑ Back to top | Tablatures and chords for acoustic guitar and electric guitar, ukulele, drums are parodies/interpretations of the original songs. You may use it for private study, scholarship, research or language learning purposes only