» » »

Hard-ons - Made To Love You Bass

Artists:  A B C D E F G H I J K L M N O P Q R S T U V W X Y Z # 

Made To Love You Bass

(ver. 1) Click to play this song!
Hard-ons
 Rating:
4/5 (4 votes)


 Made To Love You lessons Tabs too difficult? Try these video lessons and learn fast
 
                
Starts with just guitar. The bass comes in with this

G|-------------------------------------------------------------------------|
D|-------------------------------------------------------------------------|
A|-5-4---5--4-5-4--------------------------------------------5--4-5--4-5-4-|
E|-----5----------0-------------0-------------0----------------------------|

G|-------------------------------------------------------------------------|
D|-------------------------------------------------------------------------|x4
A|--7-7-7-7-7-7-7-5-7-7-7-7-7-7-7-5-7-7-7-7-7-7-7-5-5--4-5--4-5-4----------|
E|-------------------------------------------------------------------------|

G|-------------------------------------------------------------------------|
D|-------------------------------------------------------------------------|x4
A|-------------------------------------------------------------------------|
E|-0-0-2-2-3-3-4-4-5-5-6-6-7-7-8-8-9-9-------------------------------------|

This riff is just like the previous riff but faster
G|-------------------------------------------------------------------------|
D|-------------------------------------------------------------------------|x4
A|--7-7-7-5-7-7-7-5-7-7-7-5-5-4-5-4-5--------------------------------------|
E|-------------------------------------------------------------------------|

G|------------------------------------------------------------------------|
D|------------------------------------------------------------------------|x10
A|-0-0-0-0-3--0-0-0-0-1-1-------------------------------------------------|
E|------------------------------------------------------------------------|

G|-------------------------------------------------------------------------|
D|-------------------------------------------------------------------------|x2
A|-0-0----------0-0--------------------------------------------------------|
E|-----3-3-9-9------3-3-1-1------------------------------------------------|

G|------------------------------------------------------------------------|
D|------------------------------------------------------------------------|x4
A|-0-0-0-0-3--0-0-0-0-1-1-------------------------------------------------|
E|------------------------------------------------------------------------|

G|-------------------------------------------------------------------------|
D|-------------------------------------------------------------------------|x2
A|-0-0----------0-0--------------------------------------------------------|
E|-----3-3-9-9------3-3-1-1------------------------------------------------|

The last bar of this section ends on a single F note instead of two.
G|------------------------------------------------------------------------|
D|------------------------------------------------------------------------|x4
A|-0-0-0-0-3--0-0-0-0-1-1-------------------------------------------------|
E|------------------------------------------------------------------------|

This part is sort of difficult because of how fast it is played.
G|------------------------------------------------------------------------|
D|------------------------------------------------------------------------|
A|--0--3h0-3h0--0-0-0h3-4-5-----------------------------------------------|
E|------------------------------------------------------------------------|

That part is played heaps of times, then it goes back to this riff
G|-------------------------------------------------------------------------|
D|-------------------------------------------------------------------------|x4
A|-0-0----------0-0--------------------------------------------------------|
E|-----3-3-9-9------3-3-1-1------------------------------------------------|

G|-------------------------------------------------------------------------|
D|-------------------------------------------------------------------------|x4
A|--6-5-3-6-5-3-0----------------------------------------------------------|
E|-------------------------------------------------------------------------|

This is the last part of the songs. It's played really fast. The song ends on an A note.
G|-------------------------------------------------------------------------|
D|-------------------------------------------------------------------------|x4
A|--0-0-0-0-7-7-7-7-4-4-4-4-6-6-6-6----------------------------------------|
E|-------------------------------------------------------------------------|

Cheers! Hard-ons rule!
            
Submit corrections



        Made To Love You lessons Hard to play? Try these video lessons and learn fast Made To Love You lessons
        
↑ Back to top | Tablatures and chords for acoustic guitar and electric guitar, ukulele, drums are parodies/interpretations of the original songs. You may use it for private study, scholarship, research or language learning purposes only