» » »

Hanoi Rocks - 11th Street Kids Bass

Artists:  A B C D E F G H I J K L M N O P Q R S T U V W X Y Z # 

11th Street Kids Bass

(ver. 1) Click to play this song!
Hanoi Rocks
 Rating:
4/5 (4 votes)


 11th Street Kids lessons Tabs too difficult? Try these video lessons and learn fast
 
                -------------------------------------------------------------------------------
                             11th Street Kids - Hanoi Rocks
-------------------------------------------------------------------------------



Tuning: Standard

Intro
0:13   
G|----------------------------------------------------------|------------|
D|o----4-------------------5-4-----4---7-7-7-7-7-----------o|------------|
A|o--5---5-----------5---------5-5---5-------------5-------o|------------|
E|---------7-7-7-7-5---5-7-----------------------5---5-7-7--|---/10\-----|

0:31                                                                 Accidents..
G|-----------------------------------------------------------------------------|
D|-----------------------------------------------------------------------------|
A|---5---------------------------5---------------------------------------------|
E|-----5-7-7-7\--------------------5-7-7-7-7-7-7-7-7-7-7-7-7-7-7-7-7-/10\------|

Verse 1

0:54
G|-----------------------------------------------------------------------------|
D|---------5-4-----------------------------------------------------------------|
A|---5-------------5-2-----2-----------------5-----5---------------------------|
E|---------------------------5-----5-3-----3---------3-----3-5-5-5-5-5-5-5-5---|

G|---------------------------9-7-6---------4-2-----------------------|
D|-------------7-5-4---4-4-4-------------------4---0-----------------|
A|---5---5-5-5-----------------------5-2-2-----------2-0-5---5-5-5---|
E|-------------------------------------------------------------------|

                                           Well...
G|-------------------------4-2--------------------|
D|---7-5-4---4-4-4-2-0--------4---0---------------|
A|---------------------2-2----------2-0-2-/5\-----|
E|------------------------------------------------|

Verse 2

1:32
G|-----------------------------------------------------------------------------|
D|---------5-4-----------------------------------------------------------------|
A|---5-------------5-2-----2-----------------5-----5---------------------------|
E|---------------------------5-----5-3-----3---------3-----3-5-5-5-5-5-5-5-5---|

G|-----------------------------------4-2-----------------------|
D|-------------7-5-4---4-4-4-2-0---------4---0-----------------|
A|---5---5-5-5-------------------2-2-----------2-0-5---5-5-5---|
E|-------------------------------------------------------------|
                                          
G|-------------------------4-2--------------------|
D|---7-5-4---4-4-4-2-0--------4---0---------------|
A|---------------------2-2----------2-0-2---------|
E|------------------------------------------------|

G|------4-4-2-------------------------------------|
D|----5-------5-----------9-----7-----5-----5-----|
A|------------------------------------------------|
E|--------------7-7---7-7---5-5---3-3---3-3-------|

G|-----4-4-2-------------------------------------------------------------------|
D|---5-------5-----------9-----7-----------------------------------------------|
A|-----------------------------------------------------------------------------|
E|-------------7-7---7-7---5-5---3-2-3-2-3-2-3-2-3-2-5-3-5-3-5-3-5-3-5-3-5-3---|

Guitar Solo                                        Repeat x4   Accidents..
G|----------------------------------------------------------|------------|
D|o----4-------------------5-4-----4---7-7-7-7-7-----------o|------------|
A|o--5---5-----------5---------5-5---5-------------5-------o|------------|
E|---------7-7-7-7-5---5-7-----------------------5---5-7-7--|---/10\-----|

Verse 3

2:51
G|-----------------------------------------------------------------------------|
D|---------5-4-----------------------------------------------------------------|
A|---5-------------5-2-----2-----------------5-----5---------------------------|
E|---------------------------5-----5-3-----3---------3-----3-5-5-5-5-5-5-5-5---|


G|---------------------------9-7-6---------4-2-----------------------|
D|-------------7-5-4---4-4-4-------------------4---0-----------------|
A|---5---5-5-5-----------------------5-2-2-----------2-0-5---5-5-5---|
E|-------------------------------------------------------------------|

G|-------------------------4-2--------------|
D|---7-5-4---4-4-4-2-0--------4---0---------|
A|---------------------2-2----------2-0-2---|
E|------------------------------------------|

Outro
G|------4-4-2-------------------------------------|
D|o---5-------5-----------9-----7-----5-----5-----|
A|o-----------------------------------------------|
E|--------------7-7---7-7---5-5---3-3---3-3-------|

G|-----4-4-2-------------------------------------------------------------------|
D|---5-------5-----------9-----7----------------------------------------------o|
A|----------------------------------------------------------------------------o|
E|-------------7-7---7-7---5-5---3-2-3-2-3-2-3-2-3-2-5-3-5-3-5-3-5-3-5-3-5-3---|

G|-------------------------------------|
D|-------------------------------------|
A|---5---------------------------------|
E|-------------------------------------|

Or something along those lines, not completely sure about a couple of sections.....

| /  slide up
| \  slide down
| h  hammer-on
| p  pull-off
| ~  vibrato
| +  harmonic
| x  Mute note
===============================================================================
            
Submit corrections



        11th Street Kids lessons Hard to play? Try these video lessons and learn fast 11th Street Kids lessons
        
↑ Back to top | Tablatures and chords for acoustic guitar and electric guitar, ukulele, drums are parodies/interpretations of the original songs. You may use it for private study, scholarship, research or language learning purposes only