» » »

Hannah Montana - Bigger Than Us Tabs

Artists:  A B C D E F G H I J K L M N O P Q R S T U V W X Y Z # 

Bigger Than Us Tabs

(ver. 2) Click to play this song!
Hannah Montana
 Rating:
4/5 (4 votes)


 Bigger Than Us lessons Tabs too difficult? Try these video lessons and learn fast
 
                most song repeats ok n well they r bar chords that r played
well here we go hope its right

|----------------------------|
|----------------------------|
|----1-----1---------1-----1-|
|----2-----2---------2-----2-|  INTRO
|----2-----2---------2-----2-|
|0-0-0-0-0-0-0-0-0-0-0-0-0-0-|
PM...........................

1 VERSE
|-------------------------------------------------------|
|-------------------------------------------------------|
|-------------------------------------------------------|
|----1-----1---------1-----1------9-----9-------9-----9-|
|----2-----2---------2-----2------9-----9-------9-----9-|
|0-0-0-0-0-0-0-0-0-0-0-0-0-0--7-7-7-7-7-7-7-7-7-7-7-7-7-|
PM.......................................................
I see your face, I look in your eyes What you feel is no
|--------------------------------------------------------|
|--------------------------------------------------------|
|--------------------------------------------------------|
|----7-----7-------7-----7-----9-----9---------9-----9---|
|----7-----7-------7-----7-----9-----9---------9-----9---|
|5-5-5-5-5-5-5-5-5-5-5-5-5-7-7-7-7-7-7-7-7-7-7-7-7-7-7---|
PM.......................................................
surprise Everyone needs something to believe in(.....)


N WELL YOU PLAY THIS TRHOUGHT THE WHOLE SONG ITS ACOUSTIC
OK
ITS THE CORRECT WAY TO PLAY IT I THINK
CORRECT ME IF IT AINT RIGHT
THE VERSE CHORUS N SECOND VERSE R PLAY LIKE THIS
JOPE U GUYS ENJO

lYRICS

I see your face, I look in your eyes
What you feel is no
Everyone needs something to believe in

Tell me your dreams and I'll tell you mine
In our hearts we'll look inside
And see all the colors of a rainbow
And I know

[CHORUS]
We all want to believe in love
We all want to believe in something
Bigger than just us
We all want to be a part
Of the greater picture
That's hanging in our hearts
Yeah it's bigger than us

[VERSE]
I want to see beyond my own little world
Grab your hand so we can twirl around the galaxy
See the world with clarity
Oooo, oooo we have such a long way to go
But I know, we're getting closer every day

[CHORUS]
We all want to believe in love
We all want to believe in something
Bigger than just us
We all want to be a part
Of the greater picture
That's hanging in our hearts
Yeah it's bigger than us

[BRIDGE]
It fills the universe
Lights the skies above
And rescues all our hearts with love (L.O.V.E. love)
With love...(L.O.V.E. love)
That's what's bigger than us (bigger than us come on!)
It's love it's love that's bigger than us
It's love it's love that's bigger than us
It's love it's love it's love it's love it's love it's love
We all wanna believe in love
We all wanna believe something
Bigger than just us
            
Submit corrections



        Bigger Than Us lessons Hard to play? Try these video lessons and learn fast Bigger Than Us lessons
        
↑ Back to top | Tablatures and chords for acoustic guitar and electric guitar, ukulele, drums are parodies/interpretations of the original songs. You may use it for private study, scholarship, research or language learning purposes only