» » »

Hammerfall - Crimson Thunder Bass

Artists:  A B C D E F G H I J K L M N O P Q R S T U V W X Y Z # 

Crimson Thunder Bass

(ver. 1) Click to play this song!
Hammerfall
 Rating:
4/5 (4 votes)
                little bass in this song

F#||------||-------|------|------|-------||-------|------|------|-------||
C#||------||*------|------|------|------*||*------|------|------|------*||
G#||------||*------|------|------|------*||*------|------|------|------*||
D#||------||-------|------|------|-------||-------|------|------|-------||


                                                                     
------|------|------|------|-------------------|--------------------|
------|------|------|------|-------------------|--------------------|
------|------|------|------|--2----------------|--------------------|
------|------|------|------|-------------------|--3--------5--------|


                                                                                
-------------------|------------------|-------------------|--------------------|
-------------------|------------------|-------------------|--------------------|
--2----------------|------------------|--2----------------|--------------------|
-------------------|------------------|-------------------|--3--------5--------|


                                                                                
-------------------|------------------|-------------------|--------------------|
-------------------|------------------|-------------------|--------------------|
--2----------------|------------------|--2----------------|--------------------|
-------------------|------------------|-------------------|--3--------5--------|


                                                                             
-------------------|------------------|------------------|------------------|
-------------------|------------------|------------------|------------------|
--2----------------|------------------|------------------|------------------|
-------------------|------------------|------------------|------------------|
            
Submit corrections

↑ Back to top | Tablatures and chords for acoustic guitar and electric guitar, ukulele, drums are parodies/interpretations of the original songs. You may use it for private study, scholarship, research or language learning purposes only