Home » G » Guster »

Guster - Jonah Tabs

Artists:  A B C D E F G H I J K L M N O P Q R S T U V W X Y Z # 

Jonah Tabs

(ver. 1) Click to play this song!
Guster
 Rating:
4/5 (4 votes)
                This basics for the song Jonah by Guster, an extra track off the deluxe version of Easy 
Wonderful. This is my first tab, don't kill me if it isn't 100% accurate.

Lead Intro:
  D
|-2-2-2-2-2-2-0--2-2-2-2-2-2-2--2-2-2-2-5-2-2--2-2-2-2-2-2-2-|
|-3-3-3-3-3-3-3--3-3-3-3-3-3-3--3-3-3-3-3-3-3--3-3-3-3-3-3-3-|
|-2-2-2-2-2-2-2--2-2-2-2-2-2-2--2-2-2-2-2-2-2--2-2-2-2-2-2-2-|
|-0-0-0-0-0-0-0--0-0-0-0-0-0-0--0-0-0-0-0-0-0--0-0-0-0-0-0-0-|
|------------------------------------------------------------|
|------------------------------------------------------------|

Rhythm Intro:
  D             E               G              D
|-2-------------0---------------3--------------2-------------|
|-3-------------0---------------3--------------3-------------|
|-2-------------1---------------0--------------2-------------|
|-0-------------2---------------0--------------0-------------|
|---------------2---------------0----------------------------|
|---------------0---------------3----------------------------|

Bass Intro Riff (Playable as a lead part):

|------------------------|
|------------------------|
|------------------------|
|--------4-7-6----5--5\0-|
|--/5--5--------7--------|
|------------------------|

Verse/Chorus Chords
       D            E
I was down for the count
         G            D
Without any real way out
         D        E
In this new submarine
           G               D
Like the whale of Jonah's dreams
     D    Dsus  D    Dsus   D   A
And what   if   I   should rise up
      D    Dsus  D    Dsus   A
   Bm        F#m         G        D         A
A scar on my soul and a humbling tale of a world
      A            D    E   G   D
That swallowed me whole
              D     E    G    D
Swallowed me whole

Bridge:
D                       D
I was asleep while the angels were weeping
     D                  D
And racing below me to cushion my fall

Solo:

|-5---5----------7---7----------10----10---------------------------| X2
|---7---5---5-7----9---7---7-9-----12----10----10-12-----10--------|
|---------7--------------9------------------12--------11----11-9-7-|
|------------------------------------------------------------------|
|------------------------------------------------------------------|
|------------------------------------------------------------------|


Hope this tab was helpful! On the bridge it might be best to pick through the strings 
and mess around with Dsus and other variants. Also the solo is slightly dumbed down but 
its gets the job done.
            
Submit corrections

↑ Back to top | Tablatures and chords for acoustic guitar and electric guitar, ukulele, drums are parodies/interpretations of the original songs. You may use it for private study, scholarship, research or language learning purposes only