» » »

Grinspoon - What You Got Bass

Artists:  A B C D E F G H I J K L M N O P Q R S T U V W X Y Z # 

What You Got Bass

(ver. 1) Click to play this song!
Grinspoon
 Rating:
4/5 (4 votes)


 What You Got lessons Tabs too difficult? Try these video lessons and learn fast
 
                Great song!

Intro: 1x: this is just guitar.
G------------------------|
D------------------------|
A-4-4--------2-----------|
E------4-3-2-------------|
Verse 1; (0:04 - 0:32): Repeat both - back and forth. 8 x
G--------------------------------|---------------------------------|
D--------------------------------|--------------2--------------o---|
A--4-4------2--------------------|--2-4-4------2-2-------------/---|  o/o means
E------4-3-2---------------------|--------4-3-2-----------------o--| repeat both measures.
Pre-Chorus: (0:33- 0:40) play once.
G-------------------------------------------------------------------|
D--------------------4-4-4-4-4-4-4------------------------8-8-------|
A----1-1-2-2-3-3-4-4------------------------2-2----2-2-6-6----------|
E-2-2-------------------------------1-1-0-0-----0-0-----------------|
Chorus: (0:41-0:55)
G--------------------------------|----------------------------------|
D--------------------------x 3---|----------------------------------|
A-4-2-4--7--7-------0-0----------|-00000000000000002222222222222222-|
E----------7--2-0-2--------------|----------------------------------|
Verse 2: (0:56-1:25): x4
G--------------------------------|-----------------------------------|
D--------------------------------|--------------2--------------o-----|
A--4-4------2--------------------|--2-4-4------2-2--------------/----|
E------4-3-2---------------------|--------4-3-2-----------------o----|

Repeat PRe-Chorus: (1:25-1:33)
Repeat Chorus:  (1:33-1:48)
During Solo, play verse riff x2: (1:49-2:02)
Bridge: Same as pre-chorus: (2:03-2:10)
Bridge 2: Guitar only playing. (2:10-2:17)
Chorus: Play chorus again.
play verse riff twice and then end on a c#.


This is 4 eric.
            
Submit corrections



        What You Got lessons Hard to play? Try these video lessons and learn fast What You Got lessons
        
↑ Back to top | Tablatures and chords for acoustic guitar and electric guitar, ukulele, drums are parodies/interpretations of the original songs. You may use it for private study, scholarship, research or language learning purposes only