» » »

Grinspoon - Hard Act To Follow Bass

Artists:  A B C D E F G H I J K L M N O P Q R S T U V W X Y Z # 

Hard Act To Follow Bass

(ver. 3) Click to play this song!
Grinspoon
 Rating:
4/5 (4 votes)


 Hard Act To Follow lessons Tabs too difficult? Try these video lessons and learn fast
 
                Playing this song the other tabs were almost there.
I think this is about right.
I tried to make it as easy as possible to read and wrote it how I like to read it.
Please Comment and rate enjoy!

INTRO

Guitar 4 times then in with drums:

G------------------------|
D------------------------|
A--------------------5---|    X4
E-7-7-7--7-7--7--7-5---0-|


BRIDGE

G--------------------------------------------------------------------|
D--------------------------------------------------------------------|
A---------------------------------5-5-5-5-5-5-5-5--------------------|
E-0-0-0-0-0-0-0-0-0-0-0-0-0-0-0-0-----------------5-5-5-5-5-5-5-5-5~-|


CHORUS

G------------------------------------|
D------------------------------------|
A----------5.5~-55-------------------| X2
E-7-7-7-77----------5-5-5-55-333-555-|


VERSE

G------------------------|
D------------------------|
A--------------------5---|    X4
E-7-7-7--7-7--7--7-5---0-|


BRIDGE

G--------------------------------------------------------------------|
D--------------------------------------------------------------------|
A---------------------------------5-5-5-5-5-5-5-5--------------------|
E-0-0-0-0-0-0-0-0-0-0-0-0-0-0-0-0-----------------5-5-5-5-5-5-5-5-5~-|


CHORUS

G------------------------------------|
D------------------------------------|
A----------5.5~-55-------------------| X4
E-7-7-7-77----------5-5-5-55-333-555-|


GUITAR SOLO

Wait

Then come in with drums

G-----------|
D-----------|
A-----------|
E-333~ 555~

G:----------------------------------------------|
D:----------------------------------------------|
A:-------------5--------------------------------| X2
E:-7-7-7-x-7-5---5~-5-0-0-0-x-x-3-3-3-x-x-5-5-5-|


BRIDGE

G---------------------------------------------------------------------|
D---------------------------------------------------------------------|
A---------------------------------5-5-5-5-5-5-5-5---------------------| X2
E-0-0-0-0-0-0-0-0-0-0-0-0-0-0-0-0-----------------5-5-5-5-5-5-5-5-5~--|


CHORUS

G------------------------------------|
D------------------------------------|
A----------5.5~-55-------------------| X4
E-7-7-7-77----------5-5-5-55-333-555-|

End on a nice

E-7~~~~~~~~

woot! that's it. :)
            
Submit corrections



        Hard Act To Follow lessons Hard to play? Try these video lessons and learn fast Hard Act To Follow lessons
        
↑ Back to top | Tablatures and chords for acoustic guitar and electric guitar, ukulele, drums are parodies/interpretations of the original songs. You may use it for private study, scholarship, research or language learning purposes only