Home » G » Greta Van Fleet »

Greta Van Fleet - Trip The Light Fantastic Tabs

Artists:  A B C D E F G H I J K L M N O P Q R S T U V W X Y Z # 

Trip The Light Fantastic Tabs

(ver. 1) Click to play this song!
Greta Van Fleet
[Intro]
Organ plays and then guitar joins
E|-----------------------------------------|
B|-----------------------------------------|
G|-----------------------------------------|
D|-----------------------------------------|
A|---------7--5--4-----4--5--4-------------|
E|------------------7-----------7----------|
                                                                                      x2
E|-----0-------------------------------------|-----0-----------------------------------|
B|-----0-------3--3-----2-----3--2--0--------|-----0-----------------------------------|
G|-----1-------2--2-----2-----2--2--0--------|-----1-----------------------------------|
D|-----2-------0--0-----2-----2--2--0--------|-----2-----------------------------------|
A|-----2-------------0--0-----0--0-----------|-----2-------7--5--4-----4--5--4---------|
E|-0---0----------------------------------0--|-0---0----------------7-----------7------|
 
 
[Verse]
        full                                                                        x4
E|--------0---------0------0--0----------|-------------------------------------------|
B|-----pbr3---------2------3--2--0-------|-------------------------------------------|
G|------------------2------2--2--0-------|-2------2--2--2--2------------------1------|
D|------------------2------2--2--0-------|-2------2--2--2--2------------------2------|
A|------------------0------0--0----------|-4------2--4--2--4b5-------------2---------|
E|-0-------------------------------------|-----------------------0---0--4------------|
 
 
[Pre-chorus]
E|-----0--0----------------0--0------0-|-0------0--0------0--0------------|--------0--0-----------0--0-----0|
B|-----0--0----------------0--0------0-|-0------0--0------0--0------------|--------0--0-----------0--0-----0|
G|-----1--1----------------4--4------7-|-7------6--6------1--1------------|--------1--1-----------4--4-----7|
D|-----2--2----------------5--5------9-|-9------7--7------2--2------------|--------2--2-----------5--5-----9|
A|-2---2--2---------5------5--5------9-|-9------7--7------2--2------------|-2------2--2----5------5--5-----9|
E|-0------0---------0---------0--------|-0---------0---------0------------|-0---------0----0---------0------|
       ^                   ^         ^          ^         ^                        ^              ^        ^
E|-0------0--0------0--0----------0--0---|----0--0------0--0----------0--0------0--|-0------0--0------------|
B|-0------0--0------0--0----------0--0---|----0--0------0--0----------0--0------0--|-0------0--0------------|
G|-7------6--6------1--1----------7--7---|----6--6------1--1----------7--7------6--|-6------4--4-------4----|
D|-9------7--7------2--2----------9--9---|----7--7------2--2----------9--9------7--|-7------5--5-------5----|
A|-9------7--7------2--2----------9--9---|----7--7------2--2----------9--9------7--|-7------5--5-------5----|
E|-0---------0---------0-------------0---|-------0---------0-------------0---------|-0---------0------------|
          ^         ^             ^           ^         ^             ^                     ^
E|---------------------0--0------------------|
B|---------------------0--0------------------|
G|4---4---4---4---4----8--8------------------|
D|5---5---5---5---5----9--9------------------|
A|5---5---5---5---5----9--9------------------|
E|------------------------0------------------|
                       ^
 
[Chorus]                                                                              x4
E|-----0-------------------------------------|-----0-----------------------------------|
B|-----0-------3--3-----2-----3--2--0--------|-----0-----------------------------------|
G|-----1-------2--2-----2-----2--2--0--------|-----1-----------------------------------|
D|-----2-------0--0-----2-----2--2--0--------|-----2-----------------------------------|
A|-----2-------------0--0-----0--0-----------|-----2-------7--5--4-----4--5--4---------|
E|-0---0----------------------------------0--|-0---0----------------7-----------7------|
 
 
[Verse]
        full                                                                        x4
E|--------0---------0------0--0----------|-------------------------------------------|
B|-----pbr3---------2------3--2--0-------|-------------------------------------------|
G|------------------2------2--2--0-------|-2------2--2--2--2------------------1------|
D|------------------2------2--2--0-------|-2------2--2--2--2------------------2------|
A|------------------0------0--0----------|-4------2--4--2--4b5-------------2---------|
E|-0-------------------------------------|-----------------------0---0--4------------|
 
 
[Pre-chorus]
E|-----0--0----------------0--0------0-|-0------0--0------0--0------------|--------0--0-----------0--0-----0|
B|-----0--0----------------0--0------0-|-0------0--0------0--0------------|--------0--0-----------0--0-----0|
G|-----1--1----------------4--4------7-|-7------6--6------1--1------------|--------1--1-----------4--4-----7|
D|-----2--2----------------5--5------9-|-9------7--7------2--2------------|--------2--2-----------5--5-----9|
A|-2---2--2---------5------5--5------9-|-9------7--7------2--2------------|-2------2--2----5------5--5-----9|
E|-0------0---------0---------0--------|-0---------0---------0------------|-0---------0----0---------0------|
       ^                   ^         ^          ^         ^                        ^              ^        ^
E|-0------0--0------0--0----------0--0---|----0--0------0--0----------0--0------0--|-0------0--0-------------|
B|-0------0--0------0--0----------0--0---|----0--0------0--0----------0--0------0--|-0------0--0-------------|
G|-7------6--6------1--1----------7--7---|----6--6------1--1----------7--7------6--|-6------4--4-------4-----|
D|-9------7--7------2--2----------9--9---|----7--7------2--2----------9--9------7--|-7------5--5-------5-----|
A|-9------7--7------2--2----------9--9---|----7--7------2--2----------9--9------7--|-7------5--5-------5-----|
E|-0---------0---------0-------------0---|-------0---------0-------------0---------|-0---------0-------------|
          ^         ^             ^           ^         ^             ^                     ^
E|---------------------0--0------------------|
B|---------------------0--0------------------|
G|4---4---4---4---4----8--8------------------|
D|5---5---5---5---5----9--9------------------|
A|5---5---5---5---5----9--9------------------|
E|------------------------0------------------|
                       ^
 
[Chorus]                                                                              x4
E|-----0-------------------------------------|-----0-----------------------------------|
B|-----0-------3--3-----2-----3--2--0--------|-----0-----------------------------------|
G|-----1-------2--2-----2-----2--2--0--------|-----1-----------------------------------|
D|-----2-------0--0-----2-----2--2--0--------|-----2-----------------------------------|
A|-----2-------------0--0-----0--0-----------|-----2-------7--5--4-----4--5--4---------|
E|-0---0----------------------------------0--|-0---0----------------7-----------7------|
 
 
[Bridge]  |:                                                        x4 :|
E|-0------|-0---------0---------|-0------|-0---------0---------|-0------|
B|-0------|-0---------0---------|-0------|-0---------0---------|-0------|
G|-1------|-4---------11--------|-9------|-9---------11--------|-13-----|
D|-2------|-5---------12--------|-11-----|-11--------12--------|-14-----|
A|-2------|-5---------12--------|-11-----|-11--------12--------|-14-----|
E|-0------|-0---------0---------|-0------|-0---------0---------|-0------|
 
 
[Chorus]
(guitar rests for the first measure and a half)
E|--------|-----------------------------------------|
B|--------|-----------------------------------------|
G|--------|-----------------------------------------|
D|--------|-----------------------------------------|
A|--------|-------------7--5--4-----4--5--4---------|
E|--------|----------------------7-----------7------|
                                                                                      x4
E|-----0-------------------------------------|-----0-----------------------------------|
B|-----0-------3--3-----2-----3--2--0--------|-----0-----------------------------------|
G|-----1-------2--2-----2-----2--2--0--------|-----1-----------------------------------|
D|-----2-------0--0-----2-----2--2--0--------|-----2-----------------------------------|
A|-----2-------------0--0-----0--0-----------|-----2-------7--5--4-----4--5--4---------|
E|-0---0----------------------------------0--|-0---0----------------7-----------7------|
 
 
[Outro]
E|--------|-2-----------3--2--0-----3--2--0--------|-0-------------------------0--|
B|--------|-3--------------------------------------|-2----------------2--------0--|
G|--------|-2--------2-----------2-----------2-----|-2----------------2--------1--|
D|-2------|-0--------------------------------------|-2----------------2--------2--|
A|-2------|----------------------------------------|-0-------------------------2--|
E|-0------|----------------------------------------|---------------------------0--|
                                                                      ^
E|----------------------------------------|---------------------------------------------|
B|----------------------------------------|---------------------------------------------|
G|----------------------------------------|---------------------------------------------|
D|----------------------------------------|---------------------2-----------------------|
A|----------------7--5--4-----4--5--4-----|---------5--4--------2-----------------------|
E|-------------------------7-----------7--|---------------7--5--0-----------------------|
            
Submit corrections

↑ Back to top | Tablatures and chords for acoustic guitar and electric guitar, ukulele, drums are parodies/interpretations of the original songs. You may use it for private study, scholarship, research or language learning purposes only