» » »

Grandaddy - Am 180 Tabs

Artists:  A B C D E F G H I J K L M N O P Q R S T U V W X Y Z # 

Am 180 Tabs

(ver. 1) Click to play this song!
Grandaddy
 Rating:
4/5 (4 votes)

 Am 180  lessons Tabs too difficult? Try these video lessons and learn fast
 
                Intro Bit - The most accurate I can get it
e|---17-13----|-15-17-15-----|--------------|-12-15-15-13--|
B|------------|----------15--|-17=18-18-13--|--------------|

Intro/Chorus
e|------------|--------------|--------------|--------------|on the      |-----|
B|------------|--------------|--------------|--------------|last bar    |-----|
G|-3--3-3-3-3-|--4--4-4-4-4--|--5--5-5-5-5--|--------------|before the  |-----|
D|-3--3-3-3-3-|--4--4-4-4-4--|--5--5-5-5-5--|--3--3-3-3-3--|chorus let  |--3~~|
A|-1--1-1-1-1-|--2--2-2-2-2--|--3--3-3-3-3--|--3--3-3-3-3--|the note    |--3~~|
E|------------|--------------|--------------|--1--1-1-1-1--|ring instead|--1~~|

Verse - (No actual guita, just bass, but the chords are:

e|---------------------------|-----------------------------|
B|---------------------------|-----------------------------|
G|---------------------------|--3--------------------------|
D|--3------------------------|--3--------------------------|
A|--3------------------------|--1-x24----------------------|
E|--1-x24--------------------|-----------------------------|

Pre solo-y bit
e|------------|--------------|--------------|--------------|
B|------------|--------------|--------------|--------------|
G|-3--3-3-3-3-|--4--4-4-4-4--|--5--5-5-5-5--|--7--7-7-7-7--|
D|-3--3-3-3-3-|--4--4-4-4-4--|--5--5-5-5-5--|--7--7-7-7-7--|
A|-1--1-1-1-1-|--2--2-2-2-2--|--3--3-3-3-3--|--5--5-5-5-5--|
E|------------|--------------|--------------|--------------|

For the weird solo-y bit:
(The chorus chords play throughout the solo-y bit in the background)
                                                             Optional fun:
e|--5~~~~~~~~~|--4~~~~~~~~~~~|~~5~~~~~~~~~~~|~~1~~~~~~~~~~~| you can 
then                                                         tremolo pick
e|--5~~~~~~~~~|--4~~~~~~~~~~~|~~5~~~~~~~~~~~|~~5~~~~~~~~~~~| these bits
                                                             for style! :D
Tremolo picking
D|--7~~~~~~~~~|--7-8-10-8-7~~|~~7~~~~~~~~~~~~~~~~~~~~~~~~~~|

Theres also a strange slide which I think sounds best on B*, but here are the options:
B|----/slide from 1  to 10---|
G|----/slide from 5  to 14---|
D|----/slide from 10 to 19---| *although this makes the most sense, because you're on D anyway.

'Peeano'-y bit
e|---------------------------|-------------|--------------|
B|---------------------------|-------------|--------------|
G|---------------------------|--5----------|--3-----------|
D|--3------------------------|--5----------|--3-----------|
A|--3------------------------|--3----------|--1-----------|
E|--1------------------------|-------------|--------------|

e|---------------------------|-------------|--------------|
B|---------------------------|-------------|--------------|
G|---------------------------|-------------|--------------|
D|--7------------------------|--5----------|--3-----------|
A|--7------------------------|--5----------|--3-----------|
E|--5------------------------|--3----------|--1-----------|
            
Submit corrections


        Am 180  lessons Hard to play? Try these video lessons and learn fast Am 180  lessons
        
↑ Back to top | Tablatures and chords for acoustic guitar and electric guitar, ukulele, drums are parodies/interpretations of the original songs. You may use it for private study, scholarship, research or language learning purposes only