» » »

Gorillaz - Rhinestone Eyes Bass

Artists:  A B C D E F G H I J K L M N O P Q R S T U V W X Y Z # 

Rhinestone Eyes Bass

(ver. 1) Click to play this song!
Gorillaz
 Rating:
4/5 (4 votes)

 Rhinestone Eyes lessons Tabs too difficult? Try these video lessons and learn fast
 
                This song is simple.

G---------------------------------|
D---------------------------------|
A---------------------------------|
E---6-66--6-66--6-66--6-64466-----| Repeat Whole Song

IF you wanna keep it simple like that and follow the kick drumfor the entire song that's 
but if you wanna spice it up then I have the keyboard part.

KEYBOARD:
G--11-11-11-11-10-------------11-11-11-11-10----------|
D------------------8-8-11----------------------8-8-11-|
A-----------------------------------------------------|
E-----------------------------------------------------|

G--8-8-8-8---------------------8-8-8-8------------------|
D-----------11--8-8-11--------------------11--8-8-11----|
A-------------------------------------------------------|
E-------------------------------------------------------|

Have fun rocking,
Holli
            
Submit corrections


        Rhinestone Eyes lessons Hard to play? Try these video lessons and learn fast Rhinestone Eyes lessons
        
↑ Back to top | Tablatures and chords for acoustic guitar and electric guitar, ukulele, drums are parodies/interpretations of the original songs. You may use it for private study, scholarship, research or language learning purposes only