» » »

Gorillaz - Rhinestone Eyes Tabs

Artists:  A B C D E F G H I J K L M N O P Q R S T U V W X Y Z # 

Rhinestone Eyes Tabs

(ver. 1) Click to play this song!
Gorillaz
 Rating:
4/5 (4 votes)

 Rhinestone Eyes lessons Tabs too difficult? Try these video lessons and learn fast
 
                Hey so i saw the other tabs and saw that they were wrong so i figured the song out.  It 
look like the live guy does it but it sounds the same.  this guitar part is the soft 
guitar in the background.

      This is the part in all the verses and parts that sound like the verses.  repeat 
first part a couple of times then play the part after the vertical lines and repeat 
again.

E--0--------------------------|---0-------------------------------------------|
B--1--1------0--1--0--1-------|---1--1------0-----3---------------------------|
G------------------------2----|-----------------------------------------------|
D-----------------------------|-----------------------------------------------|
A-----------------------------|-----------------------------------------------|
E-----------------------------|-----------------------------------------------|


then for the chorus repeat this a couple of times for the chorus.

E---------------------------------------------------------------------------|
B--------6-6-6-5-5----------6-6-6-5-5---------------------------------------|
G-----------------------5------------------5--7-7-7-7-5---7-7-7-7-5---------|
D------------------77-7---------------77-7--------------7-----------7-------|
A---------------------------------------------------------------------------|
E---------------------------------------------------------------------------|

Sorry it's so short but this is it.
            
Submit corrections


        Rhinestone Eyes lessons Hard to play? Try these video lessons and learn fast Rhinestone Eyes lessons
        
↑ Back to top | Tablatures and chords for acoustic guitar and electric guitar, ukulele, drums are parodies/interpretations of the original songs. You may use it for private study, scholarship, research or language learning purposes only