» » »

Gorillaz - 19 20 Tabs

Artists:  A B C D E F G H I J K L M N O P Q R S T U V W X Y Z # 

19 20 Tabs

(ver. 1) Click to play this song!
Gorillaz
 Rating:
4/5 (4 votes)

 19 20 lessons Tabs too difficult? Try these video lessons and learn fast
 
                normal tuning......
I just tabbed this song because I didn't had anything
more usefull to do.........have fun

-|-------------15--------------------15---------------------------------------|
-|-------15-12---15---12-------15-12----15------------------------------------|
-|-12-12-----------------12-12------------------------------------------------|
-|----------------------------------------------------------------------------|
-|----------------------------------------------------------------------------|
-|----------------------------------------------------------------------------|
  just fool around with these melody's....

-|---------------17--------------------15-------------------------------------|
-|---------17-14---17---12-------15-12---15-----------------------------------|
-|12-14-14-----------------12-12----------------------------------------------|
-|----------------------------------------------------------------------------|
-|----------------------------------------------------------------------------|
-|----------------------------------------------------------------------------|
            
Submit corrections


        19 20 lessons Hard to play? Try these video lessons and learn fast 19 20 lessons
        
↑ Back to top | Tablatures and chords for acoustic guitar and electric guitar, ukulele, drums are parodies/interpretations of the original songs. You may use it for private study, scholarship, research or language learning purposes only