» » »

Gorillaz - 12d Tabs

Artists:  A B C D E F G H I J K L M N O P Q R S T U V W X Y Z # 

12d Tabs

(ver. 2) Click to play this song!
Gorillaz
 Rating:
3.7/5 (6 votes)

 12d lessons Tabs too difficult? Try these video lessons and learn fast
 
                h = hammer on
v = vibrato

e|---------------------------------------| --\ 
B|---------------------------------------|    \ 
G|---------------------------------------|     \ played all the time
D|---0-0-0-2-0-3-0-----------------------|     /
A|---------------------------------------|    / 
E|---------------------------------------| --/

Piano part
e|--2-2-2-0-2-3--2---2-2-2-0-2-3--2---2-2-2-0-2-3--2--|
B|----------------------------------------------------| 
G|----------------------------------------------------|  
D|----------------------------------------------------|
A|----------------------------------------------------|
E|----------------------------------------------------|

e|--2-0-------------------------------------------|
B|------3-0-----0-2h3~----------------------------|
G|------------2-----------------------------------|
D|------------------------------------------------|
A|------------------------------------------------|
E|------------------------------------------------|

This is my first tab. I think the piano part is correct.
            
Submit corrections


        12d lessons Hard to play? Try these video lessons and learn fast 12d lessons
        
↑ Back to top | Tablatures and chords for acoustic guitar and electric guitar, ukulele, drums are parodies/interpretations of the original songs. You may use it for private study, scholarship, research or language learning purposes only