» » »

Gorillaz - 12d Tabs

Artists:  A B C D E F G H I J K L M N O P Q R S T U V W X Y Z # 

12d Tabs

(ver. 1) Click to play this song!
Gorillaz
 Rating:
4/5 (4 votes)

 12d lessons Tabs too difficult? Try these video lessons and learn fast
 
                Gorilaz - 12d3

E |-------------------------------|
B |---------5----7----------------|
G |-------------------------------|
D |------7------------------------|
A |--5-5---5--5----5--------------|
E |-------------------------------|
Main Guitar part


E |--5-----5----------------------|
B |-----7-------------------------|
G |----------7--------------------|
D |-------------------------------|
A |-------------------------------|
E |-------------------------------|
guitar 2, towards the end of the song
            
Submit corrections


        12d lessons Hard to play? Try these video lessons and learn fast 12d lessons
        
↑ Back to top | Tablatures and chords for acoustic guitar and electric guitar, ukulele, drums are parodies/interpretations of the original songs. You may use it for private study, scholarship, research or language learning purposes only