Home » G » Gorilla Biscuits »

Gorilla Biscuits - New Direction Tabs

Artists:  A B C D E F G H I J K L M N O P Q R S T U V W X Y Z # 

New Direction Tabs

(ver. 1) Click to play this song!
Gorilla Biscuits
 Rating:
4/5 (4 votes)
                Band - Gorilla Biscuits
Song - NEW DIRECTION 

This is another classic Hardcore song and i think is one of the best songs ever!! 
it has one of those amazing vibes to it that makes you want to jump up and play, 
and it is amazing to play live it's full with energy every one should be able to play this song,
"Bring back the hardcore pride!!!" 
enjoy

intro:
e|-------|-----------||
B|-------|-----------||
G|-------|-----------||
D|-4~~~~~|4--4--4--4-||
A|-4~~~~~|4--4--4--4-||
E|-2~~~~~|2--2--2--2-||

verse:   
(what do you mean it's time, etc...)
e|---------------------------------|---------------------------|
B|---------------------------------|---------------------------|
G|--------------------------2------|--14--12--11--12---11--9---|
D|-4-----4-----4-----4------2------|---------------------------|
A|-4-----4-----4-----4------0------|--12--10--9---10---9---7---|
E|-2-22220-00002-22220-0000--------|---------------------------|

       
e|---------------------------------|--<5>----------------------|
B|---------------------------------|---------<5>---------------|
G|--------------------------2------|-----------------<5>-------|
D|-4-----4-----4-----4------2------|---------------------------|
A|-4-----4-----4-----4------0------|---------------------------|
E|-2-22220-00002-22220-0000--------|---------------------------|

                 
e|---------------------------------|---------------------------|
B|---------------------------------|---------------------------|
G|--------------------------2------|--14--12--11--12---11--9---|
D|-4-----4-----4-----4------2------|---------------------------|
A|-4-----4-----4-----4------0------|--12--10--9---10---9---7---|
E|-2-22220-00002-22220-0000--------|---------------------------|

           
                                     (burning in my heart!)
e|---------------------------------|--<5>----------------------|
B|---------------------------------|---------<5>---------------|
G|--------------------------2------|----------------<5>--------|
D|-4-----4-----4-----4------2------|---------------------------|
A|-4-----4-----4-----4------0------|---------------------------|
E|-2-22220-00002-22220-0000--------|---------------------------|
           

chorus:
  (now we're so ashamed, etc...)
e|---------------------------------|-----------------------------------|
B|---------------------------------|-----------------------------------|
G|-6-6-6-6-6-6-6-6---------9-9-9-9-|-6-6-6-6-6-6-6-6-4-4-4-4-2---2--7-6|
D|-6-6-6-6-6-6-6-6-7-7-7-7-9-9-9-9-|-6-6-6-6-6-6-6-6-4-4-4-4-2---2--7-6|
A|-4-4-4-4-4-4-4-4-7-7-7-7-7-7-7-7-|-4-4-4-4-4-4-4-4-2-2-2-2-0---0--5-4|
E|-----------------5-5-5-5---------|-----------------------------------|

e|---------------------------------|-----------------|
B|---------------------------------|-----------------|
G|-6-6-6-6-6-6-6-6---------9-9-9-9-|-6-6-6-6-6-6-6-6-|
D|-6-6-6-6-6-6-6-6-7-7-7-7-9-9-9-9-|-6-6-6-6-6-6-6-6-|
A|-4-4-4-4-4-4-4-4-7-7-7-7-7-7-7-7-|-4-4-4-4-4-4-4-4-|
E|-----------------5-5-5-5---------|-----------------|

e|-------------------------------------||
B|-------------------------------------||
G|---4---4---4---4---2---2---7-7---7-7-||
D|---4---4---4---4---2---2---7-7---7-7-||
A|-222-222-222-222-000-000---5-5---5-5-||
E|-------------------------------------||

repeat verse and chorus sections.

	      P.M--   -- X2     X6 (i think check out the song to be sure)
e|------------------------¦-----------------------||
B|------------------------¦-----------------------||
G|-6-------------444-777--¦--666666--444-777------||
D|-6-(bass riff)-444-777--¦--666666--444-777------||
A|-4-------------222-555--¦--444444--222-555------||
E|------------------------¦-----------------------||
            
Submit corrections

↑ Back to top | Tablatures and chords for acoustic guitar and electric guitar, ukulele, drums are parodies/interpretations of the original songs. You may use it for private study, scholarship, research or language learning purposes only