Home » G » Gorilla Biscuits »

Gorilla Biscuits - Cats And Dogs Tabs

Artists:  A B C D E F G H I J K L M N O P Q R S T U V W X Y Z # 

Cats And Dogs Tabs

(ver. 1) Click to play this song!
Gorilla Biscuits
  Intro:                                       Verse:  
   e|--------------------------------------------|-------------------------|
   B|--------------------------------------------|-------------------------|
   G|--7-7-7--4-4-4-------------11-11-11---9-9-9-|----------7-7--4-4-------|
   D|--7-7-7--4-4-4-7>----------11-11-11---9-9-9-|-7-7-7-7--7-7--4-4--X4---|
   A|--5-5-5--2-2-2-7> bass run--9--9--9---7-7-7-|-7-7-7-7--5-5--2-2-------|
   E|---------------5>---------------------------|-5-5-5-5-----------------|
    
                                Bridge:    
   e|-------------------------|----------------------------|
   B|-------------------------|----------------------------|
   G|----------------7-7------|--4-4-4-4-4-4--6-6-6-6-6-6--|
   D|--4-4--4--44-4--7-7--X3--|--4-4-4-4-4-4--6-6-6-6-6-6--|
   A|--4-4--4--44-4--5-5------|--2-2-2-2-2-2--4-4-4-4-4-4--|
   E|--2-2--2--22-2-----------|----------------------------|
      |----PM------|    

                                                After 2nd verse     
   e|------------------------------------------|---------------|
   B|------------------------------------------|---------------|
   G|--4-4-4-4--6-6-6-6--5-5-5-5--9-9-9-9------|-9-7-6-7-6-4---|
   D|--x-x-x-x--x-x-x-x--x-x-x-x--x-x-x-x--X2--|-x-x-x-x-x-x---|
   A|--2-2-2-2--4-4-4-4--5-5-5-5--7-7-7-7------|-7-5-4-5-4-2---|
   E|------------------------------------------|---------------|

   e|----------------------------------------|
   B|----------------------------------------|
   G|--4-4-4--7-7-7--9-9-9-9-------9--7-4----|
   D|--4-4-4--7-7-7--9-9-9-9--X8---9--7-4-5--|
   A|--2-2-2--5-5-5--7-7-7-7-------7--5-2-5--|
   E|-------------------------------------3--|
      |--------PM-----------| 
            
Submit corrections

↑ Back to top | Tablatures and chords for acoustic guitar and electric guitar, ukulele, drums are parodies/interpretations of the original songs. You may use it for private study, scholarship, research or language learning purposes only