» » »

Goldfinger - Is She Really Going Out With Him Bass

Artists:  A B C D E F G H I J K L M N O P Q R S T U V W X Y Z # 

Is She Really Going Out With Him Bass

(ver. 1) Click to play this song!
Goldfinger
 Rating:
4/5 (4 votes)

 Is She Really Going Out With Him lessons Tabs too difficult? Try these video lessons and learn fast
 
                VERSE
G------------------
D-------------3333-
A-3-3--------------
E-----3-56-6-------

CHORUS
G------------------------
D------------------------
A-----3-33----------0----
E-1-11------1-11-00---3--

BRIDGE
G---------------------
D---------------------
A---------------------
E-0----1----3----5----
            
Submit corrections


        Is She Really Going Out With Him lessons Hard to play? Try these video lessons and learn fast Is She Really Going Out With Him lessons
        
↑ Back to top | Tablatures and chords for acoustic guitar and electric guitar, ukulele, drums are parodies/interpretations of the original songs. You may use it for private study, scholarship, research or language learning purposes only