Home » G » Goldfinger »

Goldfinger - Is She Really Going Out With Him Tabs

Artists:  A B C D E F G H I J K L M N O P Q R S T U V W X Y Z # 

Is She Really Going Out With Him Tabs

(ver. 1) Click to play this song!
Goldfinger
Intro :
E-6-----------------|
B-6h8p6-------------|
G------7-----10-----|
D-------8-7-8---7-8-|
A-------------------|
E-------------------|

riff 1 (during verses) 
E-3-3-1-1 
B-5-3-3-1 
G-5-4-3-2 
D--------
A--------
E--------

Chorus:
E----------------------------------------------------------------------|
B----------------------------------------------------------------------|
G-3333-------------------5-x-55-5--------------------------------------|
D-3333-3333--3-x-33-3----5-x-55-5---3-x-33-3-2--7-5-3-x-33-3-2-7-5-3-5-|
A-1111-3333--3-x-33-3----3-x-33-3---3-x-33-3-2--7-5-3-x-33-3-2-7-5-3-5-|
E------1111--1-x-11-1---------------1-x-11-1-0--5-3-1-x-11-1-0-5-3-1-3-|

Riff 2: (but if looks could kill....)
E---------------------------
B---------------------------
G-4b-4b-4b-4b--2-3-5-7-7-5-2 gradually build up this part---9-7-5-7-5-7-5 
D--------------2-3 5-7-7-5-2
A--------------0 1 3 5 5 3 0
E---------------------------
 
order:intro 
riff 1 
chorus 
riff 1 
intro 
riff 1 
chorus 
riff 1 
riff 2 
riff 1 
chorus 
riff 1 
end with a variation of the intro 
            
Submit corrections

↑ Back to top | Tablatures and chords for acoustic guitar and electric guitar, ukulele, drums are parodies/interpretations of the original songs. You may use it for private study, scholarship, research or language learning purposes only