Home » G » Golden Earring »

Golden Earring - Twilight Zone Unplugged Tabs

Artists:  A B C D E F G H I J K L M N O P Q R S T U V W X Y Z # 

Twilight Zone Unplugged Tabs

(ver. 1) Click to play this song!
Golden Earring
 Rating:
4/5 (4 votes)
                          Bm                   Em                   F#m
      x 2 4 4 3 2          0 2 2 0 0 0          2 4 4 2 2 2



Gtr I (E A D G B E) - 'George Kooymans - Acoustic Guitar'
Gtr II (E A D G B E) - 'Barry Hay - Acoustic Guitar'

 Intro
  Q=128
  N.C.
 4/4
  Gtr II (Ac. Gtr.)
  W                     W
  Gtr I (Ac. Gtr.)
  E E E E E S S +E  E   E E E E E S S +E  E
|---------------------|---------------------|
|---------------------|---------------------|
|---------------------|---------------------|
|---0-2-0---0-2-(2)-0-|---0-2-0---0-2-(2)-0-|
|-2-------2-----------|-2-------2-----------|
|---------------------|---------------------|


  Bm
  W                     +W
  |                      |
  /                      /

  E E E E E S S +E  E    E E E E E S S +E  E
|---------------------|----------------------|
|---------------------|----------------------|
|---------------------|----------------------|
|---0-2-0---0-2-(2)-0-|----0-2-0---0-2-(2)-0-|
|-2-------2-----------|--2-------2-----------|
|---------------------|----------------------|


  Em
  W                     +W
  |                      |
  /                      /

  E E E E E S S +E  E    E E E E E S S +E  E
|---------------------|----------------------|
|---------------------|----------------------|
|---------------------|----------------------|
|-----2-0---0-2-(2)-0-|------2-0---0-2-(2)-0-|
|---2-----------------|----2-----------------|
|-0-------0-----------|--0-------0-----------|


  F#m
  W                     +W
  |                      |
  /                      /

  E E E E E S S +E  E    E E E E E S S +E  E
|---------------------|------------------------|
|---------------------|------------------------|
|-----2-------2-(2)---|------2-------2-(2)-----|
|---4---4---4-------4-|----4---4---4-------4---|
|---------------------|------------------------|
|-2-------2-----------|--2-------2-------------|


                         1st & 2nd Verses
  Bm                      Bm
  W                       +H.          Q    W                W
  |                        |
  /                        /

                                          Gtrs I, II
  E E E E E S S +E  E      E  E E E Q  Q    Q  E E E E E E   E E E E E E E E
|---------------------||------------------|-2--2-2-2-2-2-2-|-2-2-2-2-2-2-2-2-|
|---------------------||o-----------------|-3--3-3-3-3-3-3-|-3-3-3-3-3-3-3-3-|
|---------------------||------------------|-4--4-4-4-4-4-4-|-4-4-4-4-4-4-4-4-|
|---0-2-0---0-2-(2)-0-||------0-2-0-------|-4--4-4-4-4-4-4-|-4-4-4-4-4-4-4-4-|
|-2-------2-----------||o--2--------2-----|-2--2-2-2-2-2-2-|-2-2-2-2-2-2-2-2-|
|---------------------||------------------|----------------|-----------------|


  Em7                                F#m
  Q  E E E E E E   E E E E E E E E   Q  E E E E E E   E E E E E E E E
|-3--3-3-3-3-3-3-|-3-3-3-3-3-3-3-3-|-2--2-2-2-2-2-2-|-2-2-2-2-2-2-2-2--|
|-3--3-3-3-3-3-3-|-3-3-3-3-3-3-3-3-|-2--2-2-2-2-2-2-|-2-2-2-2-2-2-2-2--|
|-0--0-0-0-0-0-0-|-0-0-0-0-0-0-0-0-|-2--2-2-2-2-2-2-|-4-4-4-4-2-2-2-2--|
|----------------|-----------------|-4--4-4-4-4-4-4-|-4-4-4-4-4-4-4-4--|
|-2--2-2-2-2-2-2-|-2-2-2-2-2-2-2-2-|----------------|------------------|
|-0--0-0-0-0-0-0-|-0-0-0-0-0-0-0-0-|-2--2-2-2-2-2-2-|-2-2-2-2-2-2-2-2--|


  Bm
  E E E E E E E E   E E E E E E E E   E E E E E E E S S   E E E E E E E E
|-2-2-2-2-2-2-2-2-|-2-2-2-2-2-2-2-2-|-2-2-2-2-2-2-2-2-2-|-2-2-2-2-2-2-0-0-|
|-3-3-3-3-3-3-3-3-|-3-3-3-3-3-3-3-3-|-3-3-3-3-3-3-3-3-3-|-3-3-3-3-3-3-0-0-|
|-4-4-4-4-4-4-4-4-|-4-4-4-4-4-4-4-4-|-4-4-4-4-4-4-4-4-4-|-4-4-4-4-4-4-0-0-|
|-4-4-4-4-4-4-4-4-|-4-4-4-4-4-4-4-4-|-4-4-4-4-4-4-4-4-4-|-4-4-4-4-4-4-----|
|-2-2-2-2-2-2-2-2-|-2-2-2-2-2-2-2-2-|-2-2-2-2-2-2-2-2-2-|-2-2-2-2-2-2-----|
|-----------------|-----------------|-------------------|-----------------|


  Em                                  F#m
  E E E E E E E E   E E E E E E E E   E E E E Q.   E   E E +E  E +E  E E E
|-0-0-0-0-0-0-0-0-|-0-0-0-0-0-0-0-0-|-2-2-2-2-2----2-|-2-2-(2)-2-(2)-2-2-2--|
|-0-0-0-0-0-0-0-0-|-0-0-0-0-0-0-0-0-|-2-2-2-2-2----2-|-2-2-(2)-2-(2)-2-2-2--|
|-0-0-0-0-0-0-0-0-|-0-0-0-0-0-0-0-0-|-2-2-4-4-4----2-|-2-4-(4)-4-(4)-2-2-2--|
|-2-2-2-2-2-2-2-2-|-2-2-2-2-2-2-2-2-|-4-4-4-4-4----4-|-4-4-(4)-4-(4)-4-4-4--|
|-2-2-2-2-2-2-2-2-|-2-2-2-2-2-2-2-2-|----------------|---0-(0)-0-(0)--------|
|-0-0-0-0-0-0-0-0-|-0-0-0-0-0-0-0-0-|-2-2-2-2-2----2-|-2-------------2-2-2--|


                                          Chorus
                                        $
  Bm                                       Bm
  E E E E E E E E   E E E E E E S S S S    E E S S E S S E E S S
|-----------------|---------------------||-------------------7-7-|
|-----------------|---------------------||-------------------7-7-|
|-7-7-9-9-9-9-9-7-|-7-9-9-9-9-9-7-7-7-7-||-7-7-7-7-7-7-7-7-7-7-7-|
|-9-9-9-9-9-9-9-9-|-9-9-9-9-9-9-9-9-9-9-||-9-9-9-9-9-9-9-9-9-9-9-|
|-9-9-9-9-9-9-9-9-|-9-9-9-9-9-9-9-9-9-9-||-9-9-9-9-9-9-9-9-9-9-9-|
|-7-7-7-7-7-7-7-7-|-7-7-7-7-7-7-7-7-7-7-||-7-7-7-7-7-7-7-7-7-7-7-|


                              A                               G
  E E E S S S S S S S S S S   E E E E E E E E   E E E E E E E E
|-7-----7-7-7---------------|-5-5-5-5-5-5-5-5-|-5-5-5-5-5-5-5-3-|
|-7-7-7-7-7-7-7-7-7-7-7-7-7-|-5-5-5-5-5-5-5-5-|-5-5-5-5-5-5-5-3-|
|-7-7-7-7-7-7-7-7-7-7-7-7-7-|-6-6-6-6-6-6-6-6-|-6-6-6-6-6-6-6-4-|
|-9-9-9-9-9-9-9-9-9-9-9-9-9-|-7-7-7-7-7-7-7-7-|-7-7-7-7-7-7-7-5-|
|-9-9-9-9-9-9-9-9-9-9-9-9-9-|-----------------|-----------------|
|-7-7-7-7-7-7-7-7-7-7-7-7-7-|-5-5-5-5-5-5-5-5-|-5-5-5-5-5-5-5-3-|


                                            F#
  E E E E S S S S S S S S   E E E E S S E E S S   E E E E E E E E
|-3-3-3-3-3-3-3-3-3-3-3-3-|-3-3-3-3-3-3-3-3-2-2-|-2-2-2-2-2-2-2-2--|
|-3-3-3-3-3-3-3-3-3-3-3-3-|-3-3-3-3-3-3-3-3-2-2-|-2-2-2-2-2-2-2-2--|
|-4-4-4-4-6-6-6-6-6-6-6-6-|-4-4-4-6-6-6-6-6-3-3-|-3-3-3-3-3-3-3-3--|
|-5-5-5-5-5-5-5-5-5-5-5-5-|-5-5-5-5-5-5-5-5-4-4-|-4-4-4-4-4-4-4-4--|
|-------------------------|---------------------|------------------|
|-3-3-3-3-3-3-3-3-3-3-3-3-|-3-3-3-3-3-3-3-3-2-2-|-2-2-2-2-2-2-2-2--|


                            Bm
  S S S S S S S S S S S S E S S
|-2-2-2-2-2-2-2-2-2-2-2-2-2-----|
|-2-2-2-2-2-2-2-2-2-2-2-2-2-----|
|-4-4-4-4-4-4-4-4-4-4-4-4-4-7-7-|
|-4-4-4-4-4-4-4-4-4-4-4-4-4-9-9-|
|---------------------------9-9-|
|-2-2-2-2-2-2-2-2-2-2-2-2-2-7-7-|


  E E +E  E S S S S S S S S   E E +E  E S S S S Q
|-7-------------------------|------------------------|
|-7-------------------------|------------------------|
|-7-7-(7)-9-9-9-9-9-9-9-9-7-|-7-7-(7)-7-9-9-9-9-7----|
|-9-9-(9)-9-9-9-9-9-9-9-9-9-|-9-9-(9)-9-9-9-9-9-9----|
|-9-9-(9)-9-9-9-9-9-9-9-9-9-|-9-9-(9)-9-9-9-9-9-9----|
|-7-7-(7)-7-7-7-7-7-7-7-7-7-|-7-7-(7)-7-7-7-7-7-7----|


  A                               G                                     F#
  E E E E E E E E   E E E E E E E E   E E E E E E E E   E E E E S S E E E
|-5-5-5-5-5-5-5-5-|-5-5-5-5-5-5-5-3-|-3-3-3-3-3-3-3-3-|-3-3-3-3-3-3-3-3-2-|
|-5-5-5-5-5-5-5-5-|-5-5-5-5-5-5-5-3-|-3-3-3-3-3-3-3-3-|-3-3-3-3-3-3-3-3-2-|
|-6-6-6-6-6-6-6-6-|-6-6-6-6-6-6-6-4-|-4-4-4-4-4-4-4-4-|-4-4-4-4-4-4-4-4-3-|
|-7-7-7-7-7-7-7-7-|-7-7-7-7-7-7-7-5-|-5-5-5-5-5-5-5-5-|-5-5-5-5-5-5-5-5-4-|
|-----------------|-----------------|-----------------|-------------------|
|-5-5-5-5-5-5-5-5-|-5-5-5-5-5-5-5-3-|-3-3-3-3-3-3-3-3-|-3-3-3-3-3-3-3-3-2-|


                               To Coda
                                         G           Em                Bm
  E E E E E E E S S   E E E E E E E E    Q  Q  E E E E   +Q   Q  E E E S S
|-2-2-2-2-2-2-2-2-2-|-2-2-2-2-2-2-2-2--|-3--3--3-3-3-0-|-(0)--0--0-0-0-----|
|-2-2-2-2-2-2-2-2-2-|-2-2-2-2-2-2-2-2--|-3--3--3-3-3-0-|-(0)--0--0-0-0-0-0-|
|-3-3-3-3-3-3-3-3-3-|-4-4-4-4-4-4-4-4--|-4--4--4-4-4-0-|-(0)--0--0-0-0-4-4-|
|-4-4-4-4-4-4-4-4-4-|-4-4-4-4-4-4-4-4--|-5--5--5-5-5-2-|-(2)--2--2-2-2-4-4-|
|-------------------|------------------|-------------2-|-(2)--2--2-2-2-2-2-|
|-2-2-2-2-2-2-2-2-2-|-2-2-2-2-2-2-2-2--|-3--3--3-3-3-0-|-(0)--0--0-0-0-----|


                                            G                 Em
  E E E E +E  E S S S S   E E S S E E E +E  S S   Q  Q  E E E E   +Q   H.
|-0-0-0-0-(0)-0-0-0-0-0-|-0-----------------3-3-|-3--3--3-3-3-2-|-(2)--2-----|
|-3-3-3-3-(3)-3-3-3-3-3-|-3-0-0-0-0-0-0-(0)-0-0-|-0--0--0-0-0-0-|-(0)--0-----|
|-4-4-4-4-(4)-4-4-4-4-4-|-4-4-4-4-4-4-4-(4)-0-0-|-0--0--0-0-0-0-|-(0)--0-----|
|-4-4-4-4-(4)-4-4-4-4-4-|-4-4-4-4-4-4-4-(4)-0-0-|-0--0--0-0-2-2-|-(2)--2-----|
|-2-2-2-2-(2)-2-2-2-2-2-|-2-2-2-2-2-2-2-(2)-2-2-|-2--2--2-2-3-2-|-(2)--2-----|
|-----------------------|-------------------3-3-|-3--3--3-3-3-0-|-(0)--0-----|


  1.                            2.
  Bm                             Bm        Em
  H.      E E   +Q.   E H        Q  Q  E E E E   +W
|-2-------2-2-|-(2)---2-2-----||-2--2--2-2-0-0-|-(0)----||
|-3-------3-2-|-(2)---3-3----o||-3--3--3-2-0-0-|-(0)----||
|-4-------4-4-|-(4)---4-4-----||-4--4--4-2-0-0-|-(0)----||
|-4-------4-4-|-(4)---4-4-----||-4--4--4-2-2-2-|-(2)----||
|-2-------2-2-|-(2)---2-2----o||-2--2--2-2-2-2-|-(2)----||
|-------------|---------------||-------------0-|-(0)----||


 Guitar Solo
  N.C.
  Gtr I
  W                     W                     E.   S E E S E   S +E  E
|---------------------|---------------------|--------------------------|
|---------------------|---------------------|-7----7-7---7-7---7-(7)---|
|---------------------|---------------------|-7----7-7---7-7---7-(7)---|
|---------------------|---------------------|-7----7-7---7-7---7-(7)---|
|---------------------|---------------------|--------------------------|
|---------------------|---------------------|--------------------------|
|
| Gtr II
| E E E E E S S +E  E   E E E E E S S +E  E   E  E   E E E   S S +E  E
|---------------------|---------------------|--------------------------|
|---------------------|---------------------|--------------------------|
|---------------------|---------------------|--------------------------|
|---0-2-0---0-2-(2)-0-|---0-2-0---0-2-(2)-0-|----0---2-0-----0-2-(2)-0-|
|-2-------2-----------|-2-------2-----------|-2----------2-------------|
|---------------------|---------------------|--------------------------|


  S E   S E E S E   S +Q
|---------------------------|
|-7-7---7-7---7-7---7-(7)---|
|-7-7---7-7---7-7---7-(7)---|
|-7-7---7-7---7-7---7-(7)---|
|---------------------------|
|---------------------------|
|
| E   E   E E E   S S +E  E
|---------------------------|
|---------------------------|
|---------------------------|
|-----0---2-0-----0-2-(2)-0-|
|-2-----------2-------------|
|---------------------------|


  E.   S E E S E   S +Q      S S S S E E E.   S  E  E
|--------------------------|--------------------------|
|-7----7-7---7-7---7-(7)---|-7-7-7-7-7---7----7--7----|
|-7----7-7---7-7---7-(7)---|-7-7-7-7-7---7----7--7----|
|-7----7-7---7-7---7-(7)---|-7-7-7-7-7---7----7--7----|
|--------------------------|--------------------------|
|--------------------------|--------------------------|
|
| E  E   E E E   S S +E  E   E   E   E E E  S S +E  E
|--------------------------|--------------------------|
|--------------------------|--------------------------|
|--------------------------|--------------------------|
|----0---2-0-----0-2-(2)-0-|-----0---2-0----0-2-(2)-0-|
|-2----------2-------------|-2-----------2------------|
|--------------------------|--------------------------|


  E.   S E E S E   S +E  E   S S S S E E E.   S  E  E
|--------------------------|--------------------------|
|-7----7-7---7-7---7-(7)---|---7-7-7-7---7----7--7----|
|-7----7-7---7-7---7-(7)---|---7-7-7-7---7----7--7----|
|-7----7-7---7-7---7-(7)---|---7-7-7-7---7----7--7----|
|--------------------------|--------------------------|
|--------------------------|--------------------------|
|
| E  E   E E E   S S +E  E   E   E   E E E  S S +E  E
|--------------------------|--------------------------|
|--------------------------|--------------------------|
|--------------------------|--------------------------|
|----0---2-0-----0-2-(2)-0-|-----0---2-0----0-2-(2)-0-|
|-2----------2-------------|-2-----------2------------|
|--------------------------|--------------------------|


  E.   S E E E.   S  E  E   S E   S E E E.   S  E  E
|-7----------7------------|--------------------------|
|-7----7-7---7----7--7----|---7---7-7---7----7--7----|
|-7----7-7---7----7--7----|---7---7-7---7----7--7----|
|-7----7-7---7----7--7----|---7---7-7---7----7--7----|
|-------------------------|--------------------------|
|-------------------------|--------------------------|
|
| E  E   E E E  S S +E  E   E   E   E E E  S S +E  E
|-------------------------|--------------------------|
|-------------------------|--------------------------|
|-------------------------|--------------------------|
|----0---2-0----0-2-(2)-0-|-----0---2-0----0-2-(2)-0-|
|-2----------2------------|-2-----------2------------|
|-------------------------|--------------------------|


  S E   S E S S S S S S  E  S S   S S S S S S E S S E    S  E   S
|-------------------------------|---------------------------------|
|-------------------------------|---------------------------------|
|---7---7-7-x-x-7-x-x-x--7--x-x-|---7-7-7-7-7-6-7-7-6----7--6---7-|
|---9---9-9-x-x-9-x-x-x--9--x-x-|---9-9-9-9-9-7-9-9-7----9--7---9-|
|-------------------------------|---------------------------------|
|-------------------------------|---------------------------------|
|
| E   E   E E   E   S S +E  E     E   E   E   E E   S S +E    E
|-------------------------------|---------------------------------|
|-------------------------------|---------------------------------|
|-------------------------------|---------------------------------|
|-----0---2-0-------0-2-(2)-0---|-----0---2---0-----0-2-(2)---0---|
|-2-------------2---------------|-2-------------2-----------------|
|-------------------------------|---------------------------------|


  S S S S S S E E  E    S  S S S   S S S S  S  S E E  E    S  S S S
|--------------------------------|-----------------------------------|
|--------------------------------|-----------------------------------|
|---7-7-7-7-7-6-7--9----7--6-x-x-|---7-7-7--9--9-6-7--9----7--6-x-x--|
|---9-9-9-9-9-7-9-11----9--7-x-x-|---9-9-9-11-11-7-9-11----9--7-x-x--|
|--------------------------------|-----------------------------------|
|--------------------------------|-----------------------------------|
|
| E   E   E   E E  S S +E    E     E   E    E    E E  S S +E    E
|--------------------------------|-----------------------------------|
|--------------------------------|-----------------------------------|
|--------------------------------|-----------------------------------|
|-----0---2---0----0-2-(2)---0---|-----0----2----0----0-2-(2)---0----|
|-2-------------2----------------|-2---------------2-----------------|
|--------------------------------|-----------------------------------|


  S S S S  S  S E S E   S  S  S S S
|-----------------------------------|
|-----------------------------------|
|-6-7-7-7--9--9-6-7-6---7--x--x-x-x-|
|-7-9-9-9-11-11-7-9-7---9--x--x-x-x-|
|-----------------------------------|
|-----------------------------------|
|
| E   E    E    E E   S S +E    E
|-----------------------------------|
|-----------------------------------|
|-----------------------------------|
|-----0----2----0-----0-2-(2)---0---|
|-2---------------2-----------------|
|-----------------------------------|


  S S S S  S  S E E E    Q      S S S S E E E  E    S  S S S
|-----------------------------|-------------------------------|
|-----------------------------|--------------------------0-0--|
|-6-7-7-7--9--9-6-7-6----7----|---7-7-7-7-6-7--9----9--7------|
|-7-9-9-9-11-11-7-9-7----9----|---9-9-9-9-7-9-11---11--9------|
|-----------------------------|-------------------------------|
|-----------------------------|-------------------------------|
|
| E   E    E    E E S S +E  E   E   E   E E E  S S +E    E
|-----------------------------|-------------------------------|
|-----------------------------|-------------------------------|
|-----------------------------|-------------------------------|
|-----0----2----0---0-2-(2)-0-|-----0---2-0----0-2-(2)---0----|
|-2---------------2-----------|-2-----------2-----------------|
|-----------------------------|-------------------------------|


  S E   S S S E E  E    S  S S S
|--------------------------------|
|----------------------------0-0-|
|---7---7-7-7-6-7--9----7--6-----|
|---9---9-9-9-7-9-11----9--7-----|
|--------------------------------|
|--------------------------------|
|
| E   E   E   E E  S S +E    E
|--------------------------------|
|--------------------------------|
|--------------------------------|
|-----0---2---0----0-2-(2)---0---|
|-2-------------2----------------|
|--------------------------------|


  S E   S E E E S S  E  S S   S E   S E E E  E    E  S S
|---------------------------|-----------------------------|
|---------------------------|------------------------0-0--|
|---7---7-7-6-7-x-x--7--x-x-|---7---7-7-6-7--9----7-------|
|---9---9-9-7-9-x-x--9--x-x-|---9---9-9-7-9-11----9-------|
|---------------------------|-----------------------------|
|---------------------------|-----------------------------|
|
| E   E   E E E S S +E  E     E   E   E E E  S S +E  E
|---------------------------|-----------------------------|
|---------------------------|-----------------------------|
|---------------------------|-----------------------------|
|-----0---2-0---0-2-(2)-0---|-----0---2-0----0-2-(2)-0----|
|-2-----------2-------------|-2-----------2---------------|
|---------------------------|-----------------------------|


  S E   S E E E S S  E  S S   S E   S E E S E   S  S   S  S  S
|---------------------------|----------------------------------|
|-----------------------0-0-|-------------------------10-10-10-|
|---7---7-7-6-7-x-x--7------|---7---7-7-6-7-7----------9--9--9-|
|---9---9-9-7-9-x-x--9------|---9---9-9-7-9-9------------------|
|---------------------------|----------------------------------|
|---------------------------|----------------------------------|
|
| E   E   E E E S S +E  E     E   E   E E E   S S +E      E
|---------------------------|----------------------------------|
|---------------------------|----------------------------------|
|---------------------------|----------------------------------|
|-----0---2-0---0-2-(2)-0---|-----0---2-0-----0-2-(2)-----0----|
|-2-----------2-------------|-2-----------2--------------------|
|---------------------------|----------------------------------|


   E E E S S S S S S  S   S  S  S
|---------------------------------|
|-10-7-------------------10-10-10-|
|--9-7-7-x-x-7-x-x-7------9--9--9-|
|------9-x-x-9-x-x-9--------------|
|---------------------------------|
|---------------------------------|
|
|  E E E E   E   S S +E      E
|---------------------------------|
|---------------------------------|
|---------------------------------|
|----0-2-0-------0-2-(2)-----0----|
|--2---------2--------------------|
|---------------------------------|


   E  E  E S S S S E    S   S  S  S    S  S  E S S S S E E    E  S S
|-----------------------------------|----------------------------5-5-|
|-10-(7)-------------------10-10-10-|-10-12-12---7-7-7-7-9----7--5-5-|
|--9-(7)-7-x-7-7-7-7--------9--9--9-|--9-11-11---7-7-7-7-9----7------|
|--------9-x-9-9-9-9----------------|------------7-7-7-7-9----7------|
|-----------------------------------|--------------------------------|
|-----------------------------------|--------------------------------|
|
|  E  E  E E   E   S S +E      E       E     E E   E   E S S +E  E
|-----------------------------------|--------------------------------|
|-----------------------------------|--------------------------------|
|-----------------------------------|--------------------------------|
|-----0--2-0-------0-2-(2)-----0----|--------0-2---0-----0-2-(2)-0---|
|--2-----------2--------------------|--2---------------2-------------|
|-----------------------------------|--------------------------------|


   E  S  S  E S S S S S S  S   S  S  S
|--------------------------------------|
|-10-12-12-12-----------------10-10-10-|
|--9-11-11-11-x-x-7-x-x-7------9--9--9-|
|-------------x-x-9-x-x-9--------------|
|--------------------------------------|
|--------------------------------------|
|
|  E  E     E E   E   S S +E      E
|--------------------------------------|
|--------------------------------------|
|--------------------------------------|
|-----0-----2-0-------0-2-(2)-----0----|
|--2--------------2--------------------|
|--------------------------------------|


   S  S  S  S E  E  E S S  E   E    S  S  E S S E E S S  S  S E
|--------------------------------|--------------------------------|
|-10-12-12-12---(7)-9---7-----10-|-12-12-12-9-9-7-9---9-----7-7---|
|--9-11-11-11---(7)-9---7------9-|-11-11-11-9-9-7-9---9-----7-7---|
|--------------------------------|--------------------------------|
|--------------------------------|--------------------------------|
|--------------------------------|--------------------------------|
|
|  E     E    E  E  E S S +E   E    E     E E   E E S S +E    E
|--------------------------------|--------------------------------|
|--------------------------------|--------------------------------|
|--------------------------------|--------------------------------|
|--------0----2--0----0-2-(2)--0-|--------0-2---0---0-2-(2)---0---|
|--2----------------2------------|--2-------------2---------------|
|--------------------------------|--------------------------------|


                              Aadd9/E
  S S E E S S E E    S  S E   Q   Q.     E   +Q
|---------------------------|-0---0------0---(0)---|
|-------9---7-7-9-----------|-0---0------0---(0)---|
|-------9---7-7-9-----------|-6---6------6---(6)---|
|-9-9-9--------------9--9-9-|-7---7------7---(7)---|
|---------------------------|-7---7------7---(7)---|
|---------------------------|-0---0------0---(0)---|
|
| E   E E E   E S S +E    E   E E E  E E S S +E  E
|---------------------------|----------------------|
|---------------------------|----------------------|
|---------------------------|----------------------|
|-----0-2-0-----0-2-(2)---0-|---0-2--0---0-2-(2)-0-|
|-2-----------2-------------|-2--------2-----------|
|---------------------------|----------------------|


                            G/E
  Q.     E +E  Q.           E E E E Q      E  E
|-0------0-(0)-7----------|---5-5-5-----------5--|
|-0------0-(0)-0----------|-0-0-0-0--------0--0--|
|-6------6-(6)-6----------|-4-4-4-4--------4-----|
|-7------7-(7)-7----------|-5--------------------|
|-7------7-(7)-7----------|-5---5-5-5------------|
|-0------0-(0)-0----------|-0--------------------|
|
| E  E E E  E  S  S +E  E   E E E E E S S +E  E
|-------------------------|----------------------|
|-------------------------|----------------------|
|-------------------------|----------------------|
|----0-2-0-----0--2-(2)-0-|---0-2-0---0-2-(2)-0--|
|-2---------2-------------|-2-------2------------|
|-------------------------|----------------------|


                            Aadd9/E
                            |---3---|   |-----3-----|
  +E  E E E +E  E   +Q      Q   Q   Q   Q   Q       Q
|-(5)-----0-(0)-0---(0)---|-7---7---7---7---7-------7---|
|-(0)-----0-(0)-0---(0)---|-0---0---0---0---0-------0---|
|-------4-4-(4)-4---(4)---|-6---6---6---6---6-------6---|
|-----5-------------------|-7---7---7---7---7-------7---|
|-------------------------|-7---7---7---7---7-------7---|
|-------------------------|-0---0---0---0---0-------0---|
|
|  E  E E E  E  S S +E  E   E E   E   E E S   S +E    E
|-------------------------|-----------------------------|
|-------------------------|-----------------------------|
|-------------------------|-----------------------------|
|-----0-2-0-----0-2-(2)-0-|---0---2---0---0---2-(2)---0-|
|--2---------2------------|-2-----------2---------------|
|-------------------------|-----------------------------|


                            G/E
  |---3---|
  Q   Q   Q   H             E E E E E E    E  E
|-7---0---0---0-----------|-0--------------------|
|-0---0---0---0-----------|-0-3-----3-5----------|
|-6---6---6---6-----------|-4-----4-----------4--|
|-7---7---7---7-----------|-5---5----------5-----|
|-7---7---7---7-----------|-5--------------------|
|-0---0---0---0-----------|-0--------------------|
|
| E E   E   E E S S +E  E   E E E E E S S +E  E
|-------------------------|----------------------|
|-------------------------|----------------------|
|-------------------------|----------------------|
|---0---2---0---0-2-(2)-0-|---0-2-0---0-2-(2)-0--|
|-2-----------2-----------|-2-------2------------|
|-------------------------|----------------------|


                        N.C.
  E E E E E E   +Q      S S E E E +Q       E  S S   S S S S +E  E Q      Q
|---------------------|---------------------------|---------------------------|
|-3---2-----0---(0)---|---------------------------|---------------------------|
|---------0-----------|---------------------------|-------7-(7)-7-7-----------|
|---5---2-------------|-------2-4-(4)-------------|---7-9---------------------|
|---------------------|-2-2-0-----------------5-7-|-9-------------------------|
|---------------------|---------------------------|---------------------------|
|
| E E E E E S S +E  E   E   E E E  E  S S +E  E     E   E    E  E E S S +E  E
|---------------------|---------------------------|---------------------------|
|---------------------|---------------------------|---------------------------|
|---------------------|---------------------------|---------------------------|
|---0-2-0---0-2-(2)-0-|-----0-2-0-----0-2-(2)-0---|-----0----2--0---0-2-(2)-0-|
|-2-------2-----------|-2----------2--------------|-2-------------2-----------|
|---------------------|---------------------------|---------------------------|


  S S S S S  S  E S S S S  Q      S E.   E E +Q       Q
|-------------------------------|--------------------------|
|-------------------------------|--------------------------|
|---9p7---6---------------------|---7----7-----------------|
|-------9---(7)---------7-------|-9--------9-(9)-----------|
|---------------9---7-9---------|--------------------------|
|-------------------------------|--------------------------|
|
| E   E   E     E E   S S +E  E   E    E E E  E  S S +E  E
|-------------------------------|--------------------------|
|-------------------------------|--------------------------|
|-------------------------------|--------------------------|
|-----0---2-----0-----0-2-(2)-0-|------0-2-0-----0-2-(2)-0-|
|-2---------------2-------------|-2-----------2------------|
|-------------------------------|--------------------------|


  S S  S S  S S  S S  S S  S S  S  S  E
|-----------------------9-12-------9-----|
|--------9-10-9----9-10--------------10--|
|---9-11--------11-----------------------|
|----------------------------------------|
|----------------------------------------|
|----------------------------------------|
|
| E    E    E    E    E    S S +E     E
|----------------------------------------|
|----------------------------------------|
|----------------------------------------|
|------0----2----0---------0-2-(2)----0--|
|-2-------------------2------------------|
|----------------------------------------|


   S  E   S +Q    Q      S  S  S S    S S S S  S S  S S S  S   S  S  S  E   S
|----------------------------------|------------------------------------------|
|-12-10---9-(9)------------------9-|-10p9-9-9---------------------------------|
|---------------------------9h11---|----------11-9----9-----------------------|
|----------------------------------|---------------11-----(9)-12s11-11--9---7-|
|----------------------------------|------------------------------------------|
|----------------------------------|------------------------------------------|
|
|  E    E    E  E E S S +E     E      E   E    E    E   E      S  S +E    E
|----------------------------------|------------------------------------------|
|----------------------------------|------------------------------------------|
|----------------------------------|------------------------------------------|
|-------0----2--0---0-2-(2)----0---|------0----2----0----------0--2-(2)---0---|
|--2--------------2----------------|--2-----------------2---------------------|
|----------------------------------|------------------------------------------|


  E S S S S S S +Q       E  S S
|-------------------------------|
|-------------------------------|
|---------7-6-------------------|
|-7---7-9-----7-(7)-------------|
|---9-----------------------7-9-|
|-------------------------------|
|
| E E   E   E    E  S S +E  E
|-------------------------------|
|-------------------------------|
|-------------------------------|
|---0---2---0-------0-2-(2)-0---|
|-2--------------2--------------|
|-------------------------------|


  |-3-|              |-3--|
  S S S E Q   E S S  S  S S S S   S S S S Q   Q      E   S  S
|-------------------------------|-----------------------------|
|-------------------------------|--------------------------12-|
|-------6-------------------9-6-|---6-------------------11----|
|-6h7-9--------------6h=7-9-----|-----9-7-9-------------------|
|---------------7-9-------------|-----------------------------|
|-------------------------------|-----------------------------|
|
| E     E E E E S S +E      E     E   E   E E E S S +E   E
|-------------------------------|-----------------------------|
|-------------------------------|-----------------------------|
|-------------------------------|-----------------------------|
|-------0-2-0---0-2-(2)-----0---|-----0---2-0---0-2-(2)--0----|
|-2-----------2-----------------|-2-----------2---------------|
|-------------------------------|-----------------------------|


   E  E  E  E  +Q       S   E    S    E  E  +E   E  +Q       S  S  S S
|----------------------------------|-----------------------------------|
|-14-15-15-15-(15)---------14------|-12------------------------------9-|
|-------------------------------14-|----14-(14)-14-(14)---------9h11---|
|----------------------------------|-----------------------------------|
|----------------------------------|-----------------------------------|
|----------------------------------|-----------------------------------|
|
|  E  E  E  E   E  S S +E     E       E  E   E   E   E  S S +E     E
|----------------------------------|-----------------------------------|
|----------------------------------|-----------------------------------|
|----------------------------------|-----------------------------------|
|-----0--2--0------0-2-(2)----0----|-----0---2---0------0-2-(2)----0---|
|--2------------2------------------|--2--------------2-----------------|
|----------------------------------|-----------------------------------|


                          |--3---|
   S S  S S  S  E   S  E  S  S   S +S   S  S S
|---------9-12p10---9--------------------------|
|-10p9-10-------------10-12p10p==9-(9)-10------|
|-----------------------------------------11-9-|
|----------------------------------------------|
|----------------------------------------------|
|----------------------------------------------|
|
|  E    E    E    E    E  S    S   +E      E
|----------------------------------------------|
|----------------------------------------------|
|----------------------------------------------|
|-------0----2----0-------0----2---(2)-----0---|
|--2-------------------2-----------------------|
|----------------------------------------------|


           |-3--|
  S E   S  S  S S   S  S  S S S  S  E   E
|-----------------------------------------|
|-----------------------------------------|
|---9---9---------------------------------|
|---------12-11-9------9-11---9-11--------|
|-----------------(12)-----------------/9-|
|-----------------------------------------|
|
| E   E    E        E     E   S  S +E   E
|-----------------------------------------|
|-----------------------------------------|
|-----------------------------------------|
|-----0----2--------0---------0--2-(2)--0-|
|-2-----------------------2---------------|
|-----------------------------------------|


  e e S S S S E E    S  E.     S S S S E E H
|----------------------------|--------------------------|
|----------------------------|--------------------------|
|-7-7-7p6---6----------------|--------------------------|
|---------7------------------|--------------------------|
|---------------9----7--5----|-4p0-0-2p0-0-2------------|
|----------------------------|--------------------------|
|
| E E E   E   E S S +E     E   E   E   E E E S S +E  E
|----------------------------|--------------------------|
|----------------------------|--------------------------|
|----------------------------|--------------------------|
|---0-2---0-----0-2-(2)----0-|-----0---2-0---0-2-(2)-0--|
|-2-----------2--------------|-2-----------2------------|
|----------------------------|--------------------------|


   |--3--| |--3--|
   E E   E E E   E +S   S  E    +Q
|-------------------------12---(12)---|
|----------------------10-------------|
|----------7-0---9-(9)----------------|
|----7---9----------------------------|
|-/7----------------------------------|
|-------------------------------------|
|
|  E   E   E   E    E      S S  +E  E
|-------------------------------------|
|-------------------------------------|
|-------------------------------------|
|------0---2---0-----------0-2--(2)-0-|
|--2----------------2-----------------|
|-------------------------------------|


  H       E  E    Q       +Q     S  S  S  S  H
|----------------10----|-(10)---------14----14-----------|
|-----------12---------|--------14h15----15--------------|
|----------------------|---------------------------------|
|----------------------|---------------------------------|
|----------------------|---------------------------------|
|----------------------|---------------------------------|
|
| E E E E E  S S +E  E     E  E  E     E     E S S +E  E
|----------------------|---------------------------------|
|----------------------|---------------------------------|
|----------------------|---------------------------------|
|---0-2-0----0-2-(2)-0-|------0--2-----0-------0-2-(2)-0-|
|-2-------2------------|---2-----------------2-----------|
|----------------------|---------------------------------|


  Q   S  E    S   E.    S  +Q      H       S  S  E    E   E
|-------17------\14--------------|--------------------------|
|------------15--------15-(15)---|--------------12---14--15-|
|--------------------------------|-----------11-------------|
|--------------------------------|--------------------------|
|--------------------------------|--------------------------|
|--------------------------------|--------------------------|
|
| E E E    E      E  S  S  +E  E   E E E E E     S S +E   E
|--------------------------------|--------------------------|
|--------------------------------|--------------------------|
|--------------------------------|--------------------------|
|---0-2----0---------0--2--(2)-0-|---0-2-0-------0-2-(2)--0-|
|-2---------------2--------------|-2-------2----------------|
|--------------------------------|--------------------------|


   H        Q      E   E    +E   E  +Q.      E        +Q
|------------------------|------------------------------------|
|------------------------|------------------------------------|
|----------14-----11--14-|-(14)-14-(14)-----14b16====(14)r----|
|-16---------------------|------------------------------------|
|------------------------|------------------------------------|
|------------------------|------------------------------------|
|
|  E E E E  E S S +E   E     E   E   E  E E  S     S  +E   E
|------------------------|------------------------------------|
|------------------------|------------------------------------|
|------------------------|------------------------------------|
|----0-2-0----0-2-(2)--0-|-------0---2--0----0-----2--(2)--0--|
|--2--------2------------|---2------------2-------------------|
|------------------------|------------------------------------|


  Q   E  E  Q.          E    +Q    S  S  S S  S S  S S +E  E
|-------------------------|----------------9-10p9----9-(9)---|
|-------12-12----------12-|-(12)-----10h12--------12---------|
|-------------------------|----------------------------------|
|-------------------------|----------------------------------|
|-------------------------|----------------------------------|
|-------------------------|----------------------------------|
|
| E E E  E  E  S S +E   E     E  E E     E    E    S S +E  E
|-------------------------|----------------------------------|
|-------------------------|----------------------------------|
|-------------------------|----------------------------------|
|---0-2--0-----0-2-(2)--0-|------0-2-----0---------0-2-(2)-0-|
|-2---------2-------------|---2---------------2--------------|
|-------------------------|----------------------------------|


   Q    +E  S  S  S E.      E   E
|-------------12-12------------12-|
|-12---(12)-----------------------|
|-----------9---------------------|
|---------------------------------|
|---------------------------------|
|---------------------------------|
|
|  E E   E  E     E    S S +E   E
|---------------------------------|
|---------------------------------|
|---------------------------------|
|----0---2--0----------0-2-(2)--0-|
|--2--------------2---------------|
|---------------------------------|


   +Q    E  E  E  E    E.   S    Q   Q   E  T  T S  T   T S  E
|-(12)-----12-12-12---12s===9-|------------12p10p9-------------|
|-----------------------------|-10-----------------12--10-9-10-|
|-----------------------------|--------------------------------|
|-----------------------------|--------------------------------|
|-----------------------------|--------------------------------|
|-----------------------------|--------------------------------|
|
|   E  E E  E  E  S S +E  E      E E E E E  S    S +E        E
|-----------------------------|--------------------------------|
|-----------------------------|--------------------------------|
|-----------------------------|--------------------------------|
|------0-2--0-----0-2-(2)-0---|----0-2-0----0----2-(2)-------0-|
|---2----------2--------------|--2-------2---------------------|
|-----------------------------|--------------------------------|


   S  S E E S S S S S S  S  S S S
|---------------------------------|
|---------------------------------|
|-11-10-9-8---7-----------------7-|
|---------------9-7---------------|
|-------------------9-8--7--8-9---|
|---------------------------------|
|
|  E    E E E   E   S S +E    E
|---------------------------------|
|---------------------------------|
|---------------------------------|
|-------0-2-0-------0-2-(2)---0---|
|--2------------2-----------------|
|---------------------------------|


  +S  E   S +Q    E E    E  E
|-----------------------------|
|-------------------7----7----|
|-(7)-7-------------7----7----|
|---------9-(9)-------------9-|
|-----------------------------|
|-----------------------------|
|
|  E    E    E  E E S S +E  E
|-----------------------------|
|-----------------------------|
|-----------------------------|
|-------0----2--0---0-2-(2)-0-|
|--2--------------2-----------|
|-----------------------------|


  E S S +Q    E E    S  S E   E S S +S  S E E E    E  E
|---------------------------|----------------------------|
|-7---7-(7)-----7----7------|-7---7-(7)---7---7----7-----|
|-7---7-(7)-----7----7------|-7---7-(7)---7---7----7-----|
|-------------9---------9p7-|---9---------------------9--|
|---------------------------|----------------------------|
|---------------------------|----------------------------|
|
| E E    E  E E S S +E    E   E E    E    E E S S +E  E
|---------------------------|----------------------------|
|---------------------------|----------------------------|
|---------------------------|----------------------------|
|---0----2--0---0-2-(2)---0-|---0----2----0---0-2-(2)-0--|
|-2-----------2-------------|-2-------------2------------|
|---------------------------|----------------------------|


  E S S +Q    E E    E  E   E S S +S  S E E  E    E  E
|-------------------------|----------------------------|
|-7---7-(7)---7-7----7----|-7---7-(7)---7---10---10\---|
|-7---7-(7)---7-7----7----|-7---7-(7)---7---11---11\---|
|-----------------------9-|---9----------------------9-|
|-------------------------|----------------------------|
|-------------------------|----------------------------|
|
| E E    E  E E S S +E  E   E E    E    E E  S S +E  E
|-------------------------|----------------------------|
|-------------------------|----------------------------|
|-------------------------|----------------------------|
|---0----2--0---0-2-(2)-0-|---0----2----0----0-2-(2)-0-|
|-2-----------2-----------|-2-------------2------------|
|-------------------------|----------------------------|


  E S S +E  S S +E  E    E  S S
|--------------------------------|
|-7---7-(7)---7-(7)-9----9--7----|
|-7---7-(7)---7-(7)-9----9--7----|
|---9-------9-----------------9--|
|--------------------------------|
|--------------------------------|
|
| E E    E  E    E  S S +E  E
|--------------------------------|
|--------------------------------|
|--------------------------------|
|---0----2--0-------0-2-(2)-0----|
|-2--------------2---------------|
|--------------------------------|


  E S S +Q    E E    E  E   E S S +S  S E E E    S  S E
|-------------------------|-----------------------------|
|-7---7-(7)-----7----7----|-7---7-(7)---7-9-9----9------|
|-7---7-(7)-----7----7----|-7---7-(7)---7-9-9----7------|
|---------------7----7----|-7---7-(7)---7-9-9----9p=7---|
|-----------------------9-|---9-------9---------------9-|
|-------------------------|-----------------------------|
|
| E E    E  E E S S +E  E   E E    E    E E S S +E    E
|-------------------------|-----------------------------|
|-------------------------|-----------------------------|
|-------------------------|-----------------------------|
|---0----2--0---0-2-(2)-0-|---0----2----0---0-2-(2)---0-|
|-2-----------2-----------|-2-------------2-------------|
|-------------------------|-----------------------------|


  E E +S  S S S E E    E  E
|----------------------------|
|---7-(7)-------7-7----7-----|
|-7-7-(7)-------7-7----7-----|
|-7-------7---7-7-7----7-----|
|-----------9-------------9--|
|----------------------------|
|
| E E  E    E   E S S +E  E
|----------------------------|
|----------------------------|
|----------------------------|
|---0--2----0-----0-2-(2)-0--|
|-2-------------2------------|
|----------------------------|


    E S S +S  S S S E E    S  S E  8x     S S S S +S  S S S E E    S  S E  4x
||---------------------------------||-||-----------------------------------||
||o-7---7-(7)-------7-7----7------o||-||o-7-7---7-(7)-------9-9----9------o||
||--7---7-(7)-7---7-7-7----7--x----||-||--7-7---7-(7)-7---7-9-9----9-------||
||--7---7-(7)-7---7-7-7----7--x----||-||--7-7---7-(7)-7---7-9-9----9p=7----||
||o-------------9---------------9-o||-||o-----9---------9---------------9-o||
||---------------------------------||-||-----------------------------------||
|
|   E E    E    E   E S S +E    E  8x     E   E    E    E   E S S +E    E  4x
||---------------------------------||-||-----------------------------------||
||o-------------------------------o||-||o---------------------------------o||
||---------------------------------||-||-----------------------------------||
||----0----2----0-----0-2-(2)---0--||-||------0----2----0-----0-2-(2)---0--||
||o-2---------------2-------------o||-||o-2-----------------2-------------o||
||---------------------------------||-||-----------------------------------||


  S S S S S S S S  S  S  S  S  S   S  S  S
|------------------------------------------|
|-7-7-7-7-7-7-7-7-10-10-10-10-10--10-10-10-|
|-7-7-7-7-7-7-7-7--------------------------|
|-7-7-7-7-7-7-7-7--7--7--7--7--7---7--7--7-|
|------------------------------------------|
|------------------------------------------|
|
| E   E   E   E    E     S  S +E      E
|------------------------------------------|
|------------------------------------------|
|------------------------------------------|
|-----0---2---0----------0--2-(2)-----0----|
|-2----------------2-----------------------|
|------------------------------------------|


   S  S S S  S  S S S  S  S S S  S   S  S  S
|--------------------------------------------|
|-10-10-9-9-10-10-9-9-10-10-9-9-10--10-12-12-|
|--------------------------------------------|
|--7--7-6-6--7--7-6-6--7--7-6-6--7---7--9--9-|
|--------------------------------------------|
|--------------------------------------------|
|
|  E    E    E    E    E    S S +E      E
|--------------------------------------------|
|--------------------------------------------|
|--------------------------------------------|
|-------0----2----0---------0-2-(2)-----0----|
|--2-------------------2---------------------|
|--------------------------------------------|


   +S   S  S  S  E S S S   S    S    S    S  S  S  S
|------------------------(10)-(10)-(10)-(10)---(9)---|
|-(12)-12-12-12-12-x-x----10---10---10---10--x--9--x-|
|----------------------------------------------------|
|--(9)--9--9--9--9-x-x-----7----7----7----7--x--6--x-|
|----------------------------------------------------|
|----------------------------------------------------|
|
|   E      E     E E   E        S    S   +E     E
|----------------------------------------------------|
|----------------------------------------------------|
|----------------------------------------------------|
|----------0-----2-0------------0----2---(2)----0----|
|---2------------------2-----------------------------|
|----------------------------------------------------|


    S  S  S  S  E  S  S  +S  S E    E  S S   +S  S E Q   S  S  S  S  S   S  E
|-(10)---(9)-------------------------------|----------------------------------|
|--10--x--9--x-10-10-10-(10)---------------|---------------10-10-10-10s=12-12-|
|----------------------------9-9----7------|----------------------------------|
|---7--x--6--x--7--7--7--(7)-----------9-9-|-(9)-7-7-9------7--7--7--7s==9--9-|
|----------------------------7-7----5------|----------------------------------|
|--------------------------------------7-7-|-(7)-5-5-7------------------------|
|
|   E     E     E  E      E    S S +E  E      E    E E E E     S  S +E      E
|------------------------------------------|----------------------------------|
|------------------------------------------|----------------------------------|
|------------------------------------------|----------------------------------|
|---------0-----2--0-----------0-2-(2)-0---|-------0-2-0-------0--2-(2)-----0-|
|---2---------------------2----------------|--2----------2--------------------|
|------------------------------------------|----------------------------------|


   E  S  S  +Q    S  S  S  S  S   S  S  S
|-----------------------------------------|
|-10-12-12-(12)-----10-10-10-10--12-12-12-|
|-----------------------------------------|
|--7--9--9--(9)------7--7--7--7---9--9--9-|
|-----------------------------------------|
|-----------------------------------------|
|
|  E  E      E  E E     S  S +E      E
|-----------------------------------------|
|-----------------------------------------|
|-----------------------------------------|
|-----0------2--0-------0--2-(2)-----0----|
|--2--------------2-----------------------|
|-----------------------------------------|


   S  S  S  S  Q   S  S  S  S  S   S  E
|---------------------------------------|
|-12-12-12-12-12-----10-10-10-10--12-12-|
|---------------------------------------|
|--9--9--9--9--9------7--7--7--7---9--9-|
|---------------------------------------|
|---------------------------------------|
|
|  E     E     E E E     S  S +E      E
|---------------------------------------|
|---------------------------------------|
|---------------------------------------|
|--------0-----2-0-------0--2-(2)-----0-|
|--2---------------2--------------------|
|---------------------------------------|


                                                      TP
   E E E S  S  +S   S  S S  S  S E   S S S S S S S S  H
|----------------------------------|------------------------------|
|-10-------------------------------|-----------------10-----------|
|----9-7-9-10-(10)-10-10s9--9--7-7-|---4-4-4-4-4-x-x--------------|
|--7-------------------------------|------------------7-----------|
|----7-5-7--8--(8)--8--8s7--7--5-5-|---2-2-2-2-2-x-x--------------|
|----------------------------------|------------------------------|
|
|  E E E E      E      S S +E    E   E   E   E   E    E S S +E  E
|----------------------------------|------------------------------|
|----------------------------------|------------------------------|
|----------------------------------|------------------------------|
|----0-2-0-------------0-2-(2)---0-|-----0---2---0------0-2-(2)-0-|
|--2------------2------------------|-2----------------2-----------|
|----------------------------------|------------------------------|


   TP                    TP  TP  TP            TP
   W                     Q   Q   H             W
|----------------------|---------------------|----------------------|
|-10-------------------|-9---5---7-----------|-7--------------------|
|----------------------|---------------------|----------------------|
|--7-------------------|-6---2---4-----------|-4--------------------|
|----------------------|---------------------|----------------------|
|----------------------|---------------------|----------------------|
|
|  E E E E E S S +E  E   E E E E E S S +E  E   E E E E E S S +E  E
|----------------------|---------------------|----------------------|
|----------------------|---------------------|----------------------|
|----------------------|---------------------|----------------------|
|----0-2-0---0-2-(2)-0-|---0-2-0---0-2-(2)-0-|---0-2-0---0-2-(2)-0--|
|--2-------2-----------|-2-------2-----------|-2-------2------------|
|----------------------|---------------------|----------------------|


  TP       TP             TP                    TP  TP  TP
  H        H              W                     Q   Q   H
|----------------------|----------------------|----------------------|
|-7-------10-----------|-10-------------------|-9---5---7------------|
|----------------------|----------------------|----------------------|
|-4--------7-----------|--7-------------------|-6---2---4------------|
|----------------------|----------------------|----------------------|
|----------------------|----------------------|----------------------|
|
| E E E E  E S S +E  E    E E E E E S S +E  E   E E E E E S S +E  E
|----------------------|----------------------|----------------------|
|----------------------|----------------------|----------------------|
|----------------------|----------------------|----------------------|
|---0-2-0----0-2-(2)-0-|----0-2-0---0-2-(2)-0-|---0-2-0---0-2-(2)-0--|
|-2--------2-----------|--2-------2-----------|-2-------2------------|
|----------------------|----------------------|----------------------|


  TP                    TP  TP  TP            TP
  W                     Q   Q   H             W
|---------------------|---------------------|----------------------|
|-7-------------------|---------------------|----------------------|
|---------------------|-4---6---7-----------|-7--------------------|
|-4-------------------|---------------------|----------------------|
|---------------------|-2---4---5-----------|-5--------------------|
|---------------------|---------------------|----------------------|
|
| E E E E E S S +E  E   E E E E E S S +E  E   E E E E E S S +E  E
|---------------------|---------------------|----------------------|
|---------------------|---------------------|----------------------|
|---------------------|---------------------|----------------------|
|---0-2-0---0-2-(2)-0-|---0-2-0---0-2-(2)-0-|---0-2-0---0-2-(2)-0--|
|-2-------2-----------|-2-------2-----------|-2-------2------------|
|---------------------|---------------------|----------------------|


                                             2/4
  TP      TP            TP                    TP  TP
  H       H             W                     Q   Q
|---------------------|---------------------|---------|
|---------7-----------|-7-------------------|---------|
|-9-------------------|---------------------|-4---6---|
|---------4-----------|-4-------------------|---------|
|-7-------------------|---------------------|-2---4---|
|---------------------|---------------------|---------|
|
| E E E E E S S +E  E   E E E E E S S +E  E   E E E E
|---------------------|---------------------|---------|
|---------------------|---------------------|---------|
|---------------------|---------------------|---------|
|---0-2-0---0-2-(2)-0-|---0-2-0---0-2-(2)-0-|---0-2-0-|
|-2-------2-----------|-2-------2-----------|-2-------|
|---------------------|---------------------|---------|


                                                                   Bm/F#
 4/4
  TP                    TP       TP     TP      TP       TP     TP
  W                     H        Q      Q       H        Q      E  E
|---------------------|----------------------|-----------------------|
|---------------------|----------------------|---------------------7-|
|-7-------------------|-7-------14------9----|-11-------11-----11--7-|
|---------------------|----------------------|---------------------9-|
|-5-------------------|-5-------12------7----|--9--------9------9--9-|
|---------------------|----------------------|-----------------------|
|
| E E E E E S S +E  E   E E E E  E S S +E  E    E E E E  E S S +E  E
|---------------------|----------------------|-----------------------|
|---------------------|----------------------|-----------------------|
|---------------------|----------------------|-----------------------|
|---0-2-0---0-2-(2)-0-|---0-2-0----0-2-(2)-0-|----0-2-0----0-2-(2)-0-|
|-2-------2-----------|-2--------2-----------|--2--------2-----------|
|---------------------|----------------------|-----------------------|


  E E E E E E    E  E    E  E  E  E  E  E    E   E
|---------7-7----7--7-|-10-10-10-10-10-10---10--10-|
|-7-7-7-7-7-7----7--7-|-12-12-12-12-12-12---12--12-|
|-7-7-7-7-7-7----7--7-|-11-11-11-11-11-11---11--11-|
|-9-9-9-9-9-9----9--9-|----------------------------|
|-9-9-9-9-9-9----9--9-|----------------------------|
|---------------------|----------------------------|
|
| E E E E E S S +E  E    E  E  E  E  E  S S +E   E
|---------------------|----------------------------|
|---------------------|----------------------------|
|---------------------|----------------------------|
|---0-2-0---0-2-(2)-0-|-----0--2--0-----0-2-(2)--0-|
|-2-------2-----------|--2-----------2-------------|
|---------------------|----------------------------|


  A/E                     Bm/F#
   E  E  E  E  E  E    E   S  S
|--9--9--9--9--9--9----9--10-10-|
|-10-10-10-10-10-10---10--12-12-|
|--9--9--9--9--9--9----9--11-11-|
|-------------------------------|
|-------------------------------|
|-------------------------------|
|
|  E  E  E  E  E  S S +E   E
|-------------------------------|
|-------------------------------|
|-------------------------------|
|-----0--2--0-----0-2-(2)--0----|
|--2-----------2----------------|
|-------------------------------|


   E  E  E  E  E  E    E   E
|-10-10-10-10-10-10---10--10-|
|-12-12-12-12-12-12---12--12-|
|-11-11-11-11-11-11---11--11-|
|----------------------------|
|----------------------------|
|----------------------------|
|
|  E  E  E  E  E  S S +E   E
|----------------------------|
|----------------------------|
|----------------------------|
|-----0--2--0-----0-2-(2)--0-|
|--2-----------2-------------|
|----------------------------|


                                                       A/E
   E  E  E  E  E  E    E   E    E  E  E  E  E  E    E   E
|-12-12-12-12-12-12---12--12-|-10-10-10-10-10-10---10---9--|
|-12-12-12-12-12-12---12--12-|-12-12-12-12-12-12---12--10--|
|-11-11-11-11-11-11---11--11-|-11-11-11-11-11-11---11---9--|
|----------------------------|-----------------------------|
|----------------------------|-----------------------------|
|----------------------------|-----------------------------|
|
|  E  E  E  E  E  S S +E   E    E  E  E  E  E  S S +E   E
|----------------------------|-----------------------------|
|----------------------------|-----------------------------|
|----------------------------|-----------------------------|
|-----0--2--0-----0-2-(2)--0-|-----0--2--0-----0-2-(2)--0--|
|--2-----------2-------------|--2-----------2--------------|
|----------------------------|-----------------------------|


                          Bm/F#
   E  E  E  E  E  E    E   S  S    E  E  E  E  E  E    E   S  S
|--9--9--9--9--9--9----9--10-10-|-10-10-10-10-10-10---10--10-10-|
|-10-10-10-10-10-10---10--12-12-|-12-12-12-12-12-12---12--12-12-|
|--9--9--9--9--9--9----9--11-11-|-11-11-11-11-11-11---11--11-11-|
|-------------------------------|-------------------------------|
|-------------------------------|-------------------------------|
|-------------------------------|-------------------------------|
|
|  E  E  E  E  E  S S +E   E       E  E  E  E  E  S S +E   E
|-------------------------------|-------------------------------|
|-------------------------------|-------------------------------|
|-------------------------------|-------------------------------|
|-----0--2--0-----0-2-(2)--0----|-----0--2--0-----0-2-(2)--0----|
|--2-----------2----------------|--2-----------2----------------|
|-------------------------------|-------------------------------|


                    D.S. al Coda
  E5/F#               Bm
   E  E  E  E  E  S S  S  S S S
|-12-12-12-12-12-12-x------------||
|-12-12-12-12-12-12-x------------||
|-11-11-11-11-11-11-x--7--7-7-7--||
|----------------------9--9-9-9--||
|----------------------9--9-9-9--||
|----------------------7--7-7-7--||
|
|  E  E  E  E  E  S S +E    E
|--------------------------------||
|--------------------------------||
|--------------------------------||
|-----0--2--0-----0-2-(2)---0----||
|--2-----------2-----------------||
|--------------------------------||


  &
  G           Em
  Gtrs I, II
  Q  Q  E E E E   +Q   Q  E E S  S  E
|-3--3--3-3-3-0-|-(0)--0--0-0---------|
|-3--3--3-3-3-0-|-(0)--0--0-0---10-10-|
|-0--0--0-0-0-0-|-(0)--0--0-0----9--9-|
|-0--0--0-0-0-2-|-(2)--2--2-2---------|
|-------------2-|-(2)--2--2-2---------|
|-3--3--3-3-3-0-|-(0)--0--0-0---------|


   E  S  S  S  S  S  S  S  S  S  S  S  S  S  S   S E S S S S S +S  S S S Q
|----------------------------------------------|------------------------------|
|-12-12-12-12-12-12-12-12s10-10-10-10-10-10-10-|---7-7-7-7-7-7-(7)-7-7-7------|
|-11-11-11-11-11-11-11-11s=9--9--9--9--9--9--9-|---7-7-7-7-7-7-(7)-7-7-7------|
|----------------------------------------------|------------------------------|
|----------------------------------------------|------------------------------|
|----------------------------------------------|------------------------------|


  G                Em                 Bm
  Q  E E E E E E   +Q   E. S E E Q    Q  E E E E E E   +E  E E E +E  E Q
|-3--3-3-3-3-3-0-|-(0)--0--0-0-0-0--|-2--2-2-2-2-2-2-|-(2)-2-2-2-(2)-2-2---|
|-3--3-3-3-3-3-0-|-(0)--0--0-0-0-0--|-3--3-3-3-3-3-2-|-(2)-2-2-3-(3)-3-3---|
|-0--0-0-0-0-0-0-|-(0)--0--0-0-0-0--|-4--4-4-4-4-4-4-|-(4)-4-4-4-(4)-4-4---|
|-0--0-0-0-0-0-2-|-(2)--2--2-2-2-2--|-4--4-4-4-4-4-4-|-(4)-4-4-4-(4)-4-4---|
|--------------2-|-(2)--2--2-2-2-2--|-2--2-2-2-2-2-2-|-(2)-2-2-2-(2)-2-2---|
|-3--3-3-3-3-3-0-|-(0)--0--0-0-0-0--|----------------|---------------------|


    G            Em                Bm
    Q  E E E E E E   +Q   Q  E E E S S
||--3--3-3-3-3-3-0-|-(0)--0--0-0-0-----|
||o-3--3-3-3-3-3-0-|-(0)--0--0-0-0-3-3-|
||--0--0-0-0-0-0-0-|-(0)--0--0-0-0-4-4-|
||--0--0-0-0-0-0-2-|-(2)--2--2-2-2-4-4-|
||o--------------2-|-(2)--2--2-2-2-2-2-|
||--3--3-3-3-3-3-0-|-(0)--0--0-0-0-----|


  E E +E  E E. S E E   +E. S E E +E  E E E
|--------------------|-----------------------||
|-3-3-(3)-3-3--3-3-0-|-(0)-0-0-3-(3)-3-3-3--o||
|-4-4-(4)-4-4--4-4-4-|-(4)-4-4-4-(4)-4-4-4---||
|-4-4-(4)-4-4--4-4-4-|-(4)-4-4-4-(4)-4-4-4---||
|-2-2-(2)-2-2--2-2-2-|-(2)-2-2-2-(2)-2-2-2--o||
|--------------------|-----------------------||


   Outro
    G                   Em                Bm
    E E E E +E  E E E   E E E E E E E E   E E +E  E S S S S +S  S E
||--3-3-3-3-(3)-3-3-3-|-0-0-0-0-0-0-0-0-|-2-2-(2)-2-2-2-2-2-(2)-2-2-|
||o-3-3-3-3-(3)-3-3-3-|-0-0-0-0-0-0-0-0-|-3-3-(3)-3-3-3-3-3-(3)-2-2-|
||--0-0-0-0-(0)-0-0-0-|-0-0-0-0-0-0-0-0-|-4-4-(4)-4-4-4-4-4-(4)-4-4-|
||--0-0-0-0-(0)-0-0-0-|-2-2-2-2-2-2-2-2-|-4-4-(4)-4-4-4-4-4-(4)-4-4-|
||o-------------------|-2-2-2-2-2-2-2-2-|-2-2-(2)-2-2-2-2-2-(2)-2-2-|
||--3-3-3-3-(3)-3-3-3-|-0-0-0-0-0-0-0-0-|---------------------------|


                                G               Em
  +E  E E E S S S S S S S S     Q  Q  E E E E   E E E E E E E E
|-(2)-------2-2-2-2-2-2-2-2--||-3--3--3-3-3-3-|-0-0-0-0-0-0-0-0-|
|-(2)-----2-3-3-3-3-3-3-3-3-o||-3--3--3-3-3-3-|-0-0-0-0-0-0-0-0-|
|-(4)-4-4-4-4-4-4-4-4-4-4-4--||-0--0--0-0-0-0-|-0-0-0-0-0-0-0-0-|
|-(4)-4-4-4-4-4-4-4-4-4-4-4--||-0--0--0-0-0-0-|-2-2-2-2-2-2-2-2-|
|-(2)-2-2-2-2-2-2-2-2-2-2-2-o||---------------|-2-2-2-2-2-2-2-2-|
|----------------------------||-3--3--3-3-3-3-|-0-0-0-0-0-0-0-0-|


  Bm
  E E +S  E S S S S S S S S S   S S S S Q   S  S  S  S  S  S  S  S
|-2-2-(2)-2-2-2-2-2-2-2-2-2-2-|-2-2-2-2-2--------------------------|
|-3-3-(3)-3-3-3-3-3-3-3-3-3-3-|-2-3-3-3-3--10-12-12-12-12-12-12-12-|
|-4-4-(4)-4-4-4-4-4-4-4-4-4-4-|-4-4-4-4-4---9-11-11-11-11-11-11-11-|
|-4-4-(4)-4-4-4-4-4-4-4-4-4-4-|-4-4-4-4-4--------------------------|
|-2-2-(2)-2-2-2-2-2-2-2-2-2-2-|-2-2-2-2-2--------------------------|
|-----------------------------|------------------------------------|


  G
   S  S  E  E  E  S  S  S  S  +S   S  S  S
|------------------------------------------|
|-12-10-10-12-10-12-12-12-12-(12)-12-12-12-|
|-11--9--9-11--9-11-11-11-11-(11)-11-11-11-|
|------------------------------------------|
|------------------------------------------|
|------------------------------------------|


  Em
   S  S  E  E  E  S  S  S  S  +S   S  S  S
|------------------------------------------|
|-12-10-10-12-10-12-12-12-12-(12)-12-12-12-|
|-11--9--9-11--9-11-11-11-11-(11)-11-11-11-|
|------------------------------------------|
|------------------------------------------|
|------------------------------------------|


  Bm
   S  S  E  E  E  S  S  S  S  S  S  S  S
|----------------------------------------|
|-12-12-10-12-10-12-12-12-12-12-12-12-12-|
|-11-11--9-11--9-11-11-11-11-11-11-11-11-|
|----------------------------------------|
|----------------------------------------|
|----------------------------------------|


   S  S  S  S  +S  S S S S S S S +E   S S
|------------------------------------------|
|-10-10-10-10-(10)---7-7-7-7-7-7-(7)-10-7--|
|--9--9--9--9--(9)---7-7-7-7-7-7-(7)--9-7--|
|------------------------------------------|
|------------------------------------------|
|------------------------------------------|


  G                                   Em
  S S S S S S  S S S S  S S S S S S   S S S  S S S S S  S S S S S S  S S
|-----------------------------------|------------------------------------|
|-7-7-7-7-7-7-10-7-7-7-10-7-7-7-7-7-|-7-7-7-10-7-7-7-7-10-7-7-7-7-7-10-7-|
|-7-7-7-7-7-7--9-7-7-7--9-7-7-7-7-7-|-7-7-7--9-7-7-7-7--9-7-7-7-7-7--9-7-|
|-----------------------------------|------------------------------------|
|-----------------------------------|------------------------------------|
|-----------------------------------|------------------------------------|


  Bm
   S  S  S  S  S  S  S  S  S  S  S  S S S S S
|---------------------------------------------|
|-10-12-12-12-12-12-12-12-10-10-10-10-7-7-7-7-|
|--9-11-11-11-11-11-11-11--9--9--9--9-7-7-7-7-|
|---------------------------------------------|
|---------------------------------------------|
            
Submit corrections

↑ Back to top | Tablatures and chords for acoustic guitar and electric guitar, ukulele, drums are parodies/interpretations of the original songs. You may use it for private study, scholarship, research or language learning purposes only