Home » G » Golden Earring »

Golden Earring - Hold Me Now Tabs

Artists:  A B C D E F G H I J K L M N O P Q R S T U V W X Y Z # 

Hold Me Now Tabs

(ver. 1) Click to play this song!
Golden Earring


THE GOLDEN EARRING
*HOLD ME NOW*

I've figured out the text just by listening to the song
since I don't have the album with the lyrics in it, so
if somebody has the right lyrics and the solo to this

Also, if you have any comments or questions you can mail me!


INTRO:

  2x
e|-----------0--------------------0-----------------------|
B|---------0---0----------------0---0---------------------|
G|-------0-------0------------0-------0-------------------|
D|-----2-----------2--------2-----------0-----------------|
A|-------------------2p0------------------0h2-------------|
E|-0---------------------2--------------------------------|

VERSE'S:
   Em                 F#m               G                 D
e|----------0------------------0------------------3-------------2h3p2------|
B|--------0---0--------------0---0--------------0---0---------3-------3----|
G|------0-------0----------0-------0----------0-------0-----2--------------|
D|----2----------2-------2-----------2------0-----------0-0----------------|
A|----------------2p0------------------------------------------------------|
E|-0------------------2----------------0h3---------------------------------|

   G                D                A   Asus4 A
e|----------3-------------2-2--------0-0--0-0--0------------------------|
B|--------0---0---------3-----3------2-2--3-3--2------------------------|
G|------0-------0-----2---------2----2-2--2-2--2------------------------|
D|----0-----------0-0-------------0--2-2--2-2--2------------------------|
A|-----------------------------------0-0--0-0--0------------------------|
E|-3-----------------------------------------------3-2------------------|


VERSE 1:
Em                 F#m
Dreaming about the future
G               D
Drinking on the past
G                  D               A        Asus4 A
Thinking 'bout the things that bin forgotten

Trying to remember and
trying to forget
That my life is empty without you

CHORUS:
    G                Bm
Sayonara, close your eyes now little girl
     G                 F#
cause tomorrow has an hold onto the world
G                       A
Hold me now, you got to guide me through the night
G                     A7       A6   A    D
Hold me now, make my eyes stop all turn warm

VERSE 2:
Talking about our friends and love
our friends with broken hearts
The ones I always keep forgiving
A funny angel shout that boys.....
tonight I wanna keep on living

CHORUS:
For your love, close your eyes now little girl
cause tomorrow has an hold onto the world
Hold me now, you got to guide me through the night
Hold me now, and make it last forever
Hold me now, you got a conscious for a while (?)

SOLO

Hold me now, you got to guide me through the night
Hold me now, and make it last forever
Hold me now, you got a conscious for a while (?)
Hold me now, make my eyes stop all turn warm
            
Submit corrections

↑ Back to top | Tablatures and chords for acoustic guitar and electric guitar, ukulele, drums are parodies/interpretations of the original songs. You may use it for private study, scholarship, research or language learning purposes only