Home » G » Gloria Gaynor »

Gloria Gaynor - Never Can Say Goodbye Tabs

Artists:  A B C D E F G H I J K L M N O P Q R S T U V W X Y Z # 

Never Can Say Goodbye Tabs

(ver. 1) Click to play this song!
Gloria Gaynor
Gtr I (E A D G B E) - 'Electric Guitar 1'
Gtr II (E A D G B E) - 'Electric Guitar 2'
Gtr III (E A D G B E) - 'Electric Guitar 3'
Gtr IV (E A D G B E) - 'Horns arr. for Gtr.'

 Intro
  Q=127
  Fmaj7                   Em7Dm7
 4/4
  Gtr I
   W           +Q   Q   E Q  E   +W
|-----------|------------------|-------------|
|-10--------|-(10)-----10-8--6-|-(6)---------|
|--9--------|--(9)------9-7--5-|-(5)---------|
|-10--------|-(10)-----10-9--7-|-(7)---------|
|--8--------|--(8)------8-7--5-|-(5)---------|
|-----------|------------------|-------------|
|
| Gtr IV (Horns arr. for Gtr.)
|  W           +Q   Q   E Q  E   +H.      Q
|-----------|------------------|-------------|
|--5--------|--(5)------5------|-------------|
|--5--------|--(5)------5-7--5-|-(5)---------|
|--7--------|--(7)------7-5--3-|-(3)---------|
|--8--------|--(8)------8-7--5-|-(5)---------|
|-----------|------------------|-------------|


  F/G                      C
  E E   Q    H             E  S  S E  S  S S  S S  S  e E
|------------------------|---12-12-x-12-12---12---12-12-x-|
|-8----------------------|---13-13-x-13-13---13---13-13-x-|
|------------------------|--------------------------------|
|-5----------------------|--------------------------------|
|------------------------|--------------------------------|
|------------------------|--------------------------------|
|
| Gtr II
| W                        E  S  S E  E    E    E     E E
|------------------------|--------------------------------|
|------------------------|----8--8-x--8---------8-------8-|
|------------------------|----9--9-x--9---------9-------9-|
|------------------------|--------------------------------|
|------------------------|--------------------------------|
|------------------------|--------------------------------|
|
| Gtr IV
| E S S E. S e E +S  S E   W
|------------------------|--------------------------------|
|-1-1-1-1--1-1-1-(1)-1-1-|-1------------------------------|
|-2-2-2-2--2-2-2-(2)-2-2-|-0------------------------------|
|-3-3-3-3--3-3-3-(3)-3-3-|-2------------------------------|
|------------------------|-3------------------------------|
|-3-3-3-3--3-3-3-(3)-3-3-|--------------------------------|


   E   S  S  S S S  S S  S E    Q
|--x--12-12-12-x-x-12---12-----12---||
|--x--13-13-13-x-x-13---13-----13---||
|-----------------------------------||
|-----------------------------------||
|-----------------------------------||
|-----------------------------------||
|
|  E   S  S  E   S  S e    S S  E E
|-----------------------------------||
|------8--8------8--8-8----8-8----8-||
|------9--9------9--9-9----9-9----9-||
|-----------------------------------||
|-----------------------------------||
|-----------------------------------||
|
| +H.                           Q
|-----------------------------------||
|-(1)-------------------------------||
|-(0)-------------------------------||
|-(2)-------------------------------||
|-(3)-------------------------------||
|-----------------------------------||


 Pre-Verse
  Am
   E.      S  E    S S  E   S  S  S S E
|-12------12-12----x-x-12--12-12--x-x-x-|
|-13------13-13----x-x-13--13-13--x-x-x-|
|---------------------------------------|
|---------------------------------------|
|---------------------------------------|
|---------------------------------------|
|
|  E   E      E    E    E   E     E   E
|---------------------------------------|
|--x---5------x----5----x---5-----x---5-|
|--x---5------x----5----x---5-----x---5-|
|--x---7------x----7----x---7-----x---7-|
|---------------------------------------|
|---------------------------------------|
|
| Gtr III
|  E   E      S  S E    Q         Q
|-----15\-------12----------------------|
|-----17\-------13-----13\--------------|
|----------------------14\--------9-----|
|--------------------------------10-----|
|---------------------------------------|
|---------------------------------------|


                                         F/A
   S  S  S  S  E    S  S  S   S E  e E    E  S  S Q   Q    e    e
|-12-12-12-12-12----x-12-----12---12---|-12-12-12---------12---12--|
|-13-13-13-13-13----x-13-----13---13---|-13-13-13------------------|
|-14-14-14-14--------------------------|-14------------------------|
|--------------------------------------|---------------------------|
|--------------------------------------|---------------------------|
|--------------------------------------|---------------------------|
|
|  E     E     E    E     E     E  E E    E  E    E E E E  E    E
|--------------------------------------|---------------------------|
|--x-----5-----x----5-----x-----5--x-5-|--x--6----x-6-x-6--x----6--|
|--x-----5-----x----5-----x-----5--x-5-|--x--5----x-5-x-5--x----5--|
|--x-----7-----x----7-----x-----7--x-7-|--x--7----x-7-x-7--x----7--|
|--------------------------------------|---------------------------|
|--------------------------------------|---------------------------|
|
|  Q           S  S E    +Q        Q      Q       E E Q    S S  E
|--------------8s10s8----(8)-----------|------------1-----------5--|
|--------------8s10s8----(8)-----------|--------------3------------|
|--------------------------------------|-------------------3s5-----|
|--------------------------------------|---------------------------|
|--------------------------------------|---------------------------|
|--------------------------------------|---------------------------|


                                       Am
   E  S   S E  S  S  S   S S S  e  e    E  S  S  E    S  S  S   S E  e  e
|-12-12--12---15-15-----12-x-x-12-12-|-12-12-12-12----x-12-----12---12-12-|
|-13-13--13---15-15-----13-x-x-13-13-|-13-13-13-13----x--------13---------|
|------------------------------------|-14----------------------14---------|
|------------------------------------|------------------------------------|
|------------------------------------|------------------------------------|
|------------------------------------|------------------------------------|
|
|  E  E     E  E     E     E    E  E    E  E     E    E     E     E  E  E
|------------------------------------|------------------------------------|
|--x--6-----x--6-----x-----6----x--6-|--x--5-----x----5-----x-----5--x--5-|
|--x--5-----x--5-----x-----5----x--5-|--x--5-----x----5-----x-----5--x--5-|
|--x--7-----x--7-----x-----7----x--7-|--x--7-----x----7-----x-----7--x--7-|
|------------------------------------|------------------------------------|
|------------------------------------|------------------------------------|
|
|  E  Q.            +Q          Q       Q        S  S E    +Q        Q
|------------------------------------|-----------8s10s8----(8)------------|
|-----6-------------(6)--------------|-----------8s10s8----(8)------------|
|------------------------------------|------------------------------------|
|------------------------------------|------------------------------------|
|------------------------------------|------------------------------------|
|------------------------------------|------------------------------------|


                                        F/A
   S  S  S  S  e S S  S  S  e     Q      S  S  S  S E  S  S S  S E  E  S  S
|-11s12-12-12-12-x-x----12-12---------|-12-12-12-12---15-15---12---12-12-12--|
|-12s13-13-13-13-x-x----13-13---------|-13-13-13-13---13-13---13---13-13-13--|
|-------------------------------------|----------------------------14--------|
|-------------------------------------|--------------------------------------|
|-------------------------------------|--------------------------------------|
|-------------------------------------|--------------------------------------|
|
|  E     E     E E    E     E     E E    E     E    E  E    E    E  E  E
|-------------------------------------|--------------------------------------|
|--x-----5-----x-5----x-----5-----x-5-|--x-----6----x--6----x----6--x--6-----|
|--x-----5-----x-5----x-----5-----x-5-|--x-----5----x--5----x----5--x--5-----|
|--x-----7-----x-7----x-----7-----x-7-|--x-----7----x--7----x----7--x--7-----|
|-------------------------------------|--------------------------------------|
|-------------------------------------|--------------------------------------|
|
|  H                  S  S  S  S  Q      W
|-------------------------------------|--------------------------------------|
|-------------------------------------|--------------------------------------|
|--------------------12p10------------|--------------------------------------|
|--------------------------12p10-12---|--------------------------------------|
|-------------------------------------|--------------------------------------|
|-------------------------------------|--------------------------------------|


                                      1st Verse
  Am7                                  N.C.
    E  S  S  +S   S  S  S  Q    Q      E  e    E.    S S  S E  e           e
|-----15-15-(15)-15-15-15-15---15---||-x-12---12----12---12---12----------12-|
|-----------------------------------||-x-13---13----13---12---12----------12-|
|-----12-12-(12)----------12---12---||---------------------------------------|
|-----------------------------------||---------------------------------------|
|-----------------------------------||---------------------------------------|
|-----------------------------------||---------------------------------------|
|
|   E  E      E      E     E E  E E    E  S S  E  E    E    E  E           E
|-----------------------------------||---------------------------------------|
|---x--8------x------8-----x-8--x-8-||-x--8-8--x--8----x----8--------------8-|
|---x--5------x------5-----x-5--x-5-||-x--9-9--x--9----x----9--------------9-|
|---x--7------x------7-----x-7--x-7-||---------------------------------------|
|-----------------------------------||---------------------------------------|
|-----------------------------------||---------------------------------------|
|
|   E  E      S   S  E     Q    Q      H               Q       S      +S   E
|-----------------------------------||---------------------------------------|
|-/12-12------x---x-12---------12---||------------------------10pb12r(10)p=8-|
|-----12------x---x-12----12---12---||---------------------------------------|
|-----------------------------------||---------------------------------------|
|-----------------------------------||---------------------------------------|
|-----------------------------------||---------------------------------------|


   E.    S E  S  S S  S E    E          E
|-12----12---12-12---12-----12--------------|
|-12----12---12-12---12-----12--------------|
|-------------------------------------------|
|-------------------------------------------|
|-------------------------------------------|
|-------------------------------------------|
|
|  E  S  S E  S  S E    S S  E          S S
|-------------------------------------------|
|--x--8--8----8--8------8-8-------------8-8-|
|--x--9--9----9--9------9-9-------------9-9-|
|-------------------------------------------|
|-------------------------------------------|
|-------------------------------------------|
|
|  H               Q         S      +S  E
|-------------------------------------------|
|---------------------------10pb12r(10)p8---|
|-------------------------------------------|
|-------------------------------------------|
|-------------------------------------------|
|-------------------------------------------|


         Gm
   E       S   S  e S  S   S    S E    E E
|---------10--10-10---10-------10-----10---|
|---------11--11-11---11-------11-----11---|
|---------12--12-12---12-------12-----12---|
|------------------------------------------|
|------------------------------------------|
|------------------------------------------|
|
|  E       S   S  E E      E      E    E E
|-------------------8--------------------8-|
|----------8---8----8------x------8----x-8-|
|----------8---8----8------x------8----x-8-|
|------------------------------------------|
|------------------------------------------|
|------------------------------------------|
|
|  E      +Q.             +Q        a  E E
|------------------------------------------|
|-10b11==(10)------------(10)r-------------|
|-----------------------------------8s10-8-|
|------------------------------------------|
|------------------------------------------|
|------------------------------------------|


  F#m Gm
   S   E    S E  S  S S     S    E  E  E
|--9s=10---10---10-10------10------10-----|
|-10s=11---11---11-11------11------11-----|
|-11s=12---12---12-12------12------12-----|
|-----------------------------------------|
|-----------------------------------------|
|-----------------------------------------|
|
|  E     E    E  E    E          E  E  E
|--------------------------------------8--|
|--x-----8----x--8----x----------8--x--8--|
|--x-----8----x--8----x----------8--x--8--|
|-----------------------------------------|
|-----------------------------------------|
|-----------------------------------------|
|
|                     |---3---|
| +Q.            E    S  S    S  E  E  E
|-----------------------------------------|
|-----------------------------------------|
|-(8)-----------------8h10p===8-----------|
|-------------------------------10--8-10--|
|-----------------------------------------|
|-----------------------------------------|


  G6
   E.     S  E   S  S S  S S  S  E E
|-12-----12-----12-12---15---12-12-----|
|-12-----12-----12-12---15---12-12-----|
|-------------------------------12-----|
|--------------------------------------|
|--------------------------------------|
|--------------------------------------|
|
|  E   S  S  E   S  S E    S  S  E S S
|--------------------------------------|
|------8--8--x---8--8-x----8--8--x-8-8-|
|------9--9--x---9--9-x----9--9--x-9-9-|
|--------------------------------------|
|--------------------------------------|
|--------------------------------------|
|
|  S S E    +H                   Q
|--------------------------------------|
|--------------------------------------|
|--9s7s9----(9)------------------------|
|--9s7s9----(9)------------------------|
|--------------------------------------|
|--------------------------------------|


  F#6G6
   S  S  S  S  E   S  S S  S S  S S  S E
|-11s12-12-12-----15-15---12--------12---|
|-11s12-12-12-----15-15---12---12---12---|
|-11s12-12-12-----12-12--------12--------|
|----------------------------------------|
|----------------------------------------|
|----------------------------------------|
|
|  E     S  S  E   S  S E    S  S E    E
|----------------------------------------|
|--x-----8--8--x---8--8-x----8--8-x----8-|
|--x-----9--9--x---9--9-x----9--9-x----9-|
|----------------------------------------|
|----------------------------------------|
|----------------------------------------|
|
|  S  S  E    +H                  Q
|--7h10p=7----(7)------------------------|
|----------------------------------------|
|----------------------------------------|
|----------------------------------------|
|----------------------------------------|
|----------------------------------------|


  Cm
   S  S  S  S E   S S S S E  e   E
|-10-10-10-10-x---x-x---x---10-----|
|-11-11-11-11-x---------x---11-----|
|----------------------------------|
|----------------------------------|
|----------------------------------|
|----------------------------------|
|
|  S  S  E    S S E   S S E  S S E
|-----------------8---8---8--8---8-|
|--8-----8----8---8---8---8--8---8-|
|--8-----8----8---8---8---8--8---8-|
|----------------------------------|
|----------------------------------|
|----------------------------------|
|
|  W
|----------------------------------|
|----------------------------------|
|----------------------------------|
|----------------------------------|
|----------------------------------|
|----------------------------------|


   S  E    S  E    S  S  S  S  S  S  e           e
|--9s10-------x---10-10----10----10-10----------10----|
|-10s11-------x---11-11----11----11-11----------11----|
|-----------------------------------------------------|
|-----------------------------------------------------|
|-----------------------------------------------------|
|-----------------------------------------------------|
|
|  S  S  E    S S  E     S  S  E     S       S   E
|------------------------------------------------8----|
|--8-----8----8----8-----8-----8-----8-----------8----|
|--8-----8----8----8-----8-----8-----8-----------8----|
|-10----10---10---10----10----10----10----------------|
|-----------------------------------------------------|
|-----------------------------------------------------|
|
|  S  S  E    Q          Q           S      +S   S S
|-----------------------------------------------------|
|-----------------------------------------------------|
|--8h10p=8--------------------------10pb12r(10)p=8----|
|-----------------------------------------------------|
|-----------------------------------------------------|
|-----------------------------------------------------|


  N.C.
   E       S   S  e  E     S   S E    E S S
|-12------12--12-12-15--------12-----12-x-x-|
|-12------12--12-12-15--------12-----12-x-x-|
|-------------------------------------------|
|-------------------------------------------|
|-------------------------------------------|
|-------------------------------------------|
|
|  E       S   S  E  S S   E     S S  E S S
|-------------------------------------------|
|----------8---8--x--8-8---x-----8-8--x-8-8-|
|----------9---9--x--9-9---x-----9-9--x-9-9-|
|-------------------------------------------|
|-------------------------------------------|
|-------------------------------------------|
|
|          ~~~~~~~~~~~~~~~~~~~~~~~~~~~~~~~~~~
|  E      +Q.             +H
|-------------------------------------------|
|-------------------------------------------|
|-10b12==(10)------------(10)---------------|
|-------------------------------------------|
|-------------------------------------------|
|-------------------------------------------|


  F#6   G6         G5
    S    S  S  S E  S  S S  S S  S  e E
|--11s==12-12-12---15-15---15---15-15-x---|
|--11s==12-12-12---15-15---15---15-15-x---|
|--11s==12---------12-12------------------|
|-----------------------------------------|
|-----------------------------------------|
|-----------------------------------------|
|
|   E       S  S E  S  S E    S  S  E S S
|-----------------------------------------|
|---x-------8--8-x--8--8-x----8--8--x-8-8-|
|---x-------9--9-x--9--9-x----9--9--x-9-9-|
|-----------------------------------------|
|-----------------------------------------|
|-----------------------------------------|
|
|~~~~~~~
|  +H                    H
|-----------------------------------------|
|-----------------------------------------|
|-(10)r-----------------------------------|
|-----------------------------------------|
|-----------------------------------------|
|-----------------------------------------|


    Gm
  E  S  S  e  S  S  S   S E    S  S E
|---13-13-13-13-13-----13-----13-13-----|
|---11-11-11-11-11-----11-----11-11-----|
|---------------------------------------|
|---------------------------------------|
|---------------------------------------|
|---------------------------------------|
|
| E  S  S  E  S  S  E     S S  E    S S
|---------------------------------------|
|----8--8--x--8--8--x-----8-8--x----8-8-|
|----7--7--x--7--7--x-----7-7--x----7-7-|
|----8--8--x--8--8--x-----8-8--x----8-8-|
|---------------------------------------|
|---------------------------------------|
|
| H                +E     E    Q
|---------------------------------------|
|-6----------------(6)---------6--------|
|-------------------------7-------------|
|---------------------------------------|
|---------------------------------------|
|---------------------------------------|


    E°
     E  S   S E  S  S     S  S  e    E  E
|---12-12--12-x-12-12-------12-12---10------|
|---11-11--11-x-11-11-------11-11---11-13---|
|-------------------------------------------|
|-------------------------------------------|
|-------------------------------------------|
|-------------------------------------------|
|
|    E  S   S E  S  S     E     S S  E  S S
|-------------------------------------------|
|-------8---8-x--8--8-----------8-8--x--8-8-|
|-------9---9-x--9--9-----------9-9--x--9-9-|
|-------------------------------8-8--x--8-8-|
|-------------------------------------------|
|-------------------------------------------|
|
| a  E  Q.             a  E     E    Q
|-------8----------------------12s==10------|
|-------------------------------------------|
|-7s=9----------------10s12-----------------|
|-------------------------------------------|
|-------------------------------------------|
|-------------------------------------------|


  Am
   e E    e S  S S  S E    e E      E   S  S  e  S  S  e  Q   E
|-17-----17---17---17-----17-----|-17--17-17-17-17-17-17-15--13-|
|-17-----17---17---17-----17-----|-17--17-17-17-17-17-17-15--13-|
|-17----------------------17-----|-17--------------------16--14-|
|--------------------------------|------------------------------|
|--------------------------------|------------------------------|
|--------------------------------|------------------------------|
|
|  E S S  E S  S E    S S  E S S    E   S  S  E  S  S  E  Q   E
|--------------------------------|------------------------------|
|----5-5--x-5--5-x----5-5--x-5-5-|--x---5--5--x--5--5--5--8---6-|
|----5-5--x-5--5-x----5-5--x-5-5-|--x---5--5--x--5--5--5--7---5-|
|----7-7--x-7--7-x----7-7--x-7-7-|--x---7--7--x--7--7--7--9---7-|
|--------------------------------|------------------------------|
|--------------------------------|------------------------------|
|
|  W                                Q.           E     e  Q   E
|--------------------------------|------------------------------|
|--------------------------------|--5------------------5--------|
|--------------------------------|------------------------7---5-|
|--------------------------------|------------------------------|
|--------------------------------|------------------------------|
|--------------------------------|------------------------------|


  F/A
   +E.    S  e  S  S  e      e    Q
|-(13)---13-13-13-13-13-----13---13---|
|-(13)---13-13-13-13-13-----13---13---|
|-(14)------14-------------------14---|
|-------------------------------------|
|-------------------------------------|
|-------------------------------------|
|
|   E  S  S  E  S  S  E      S S  E E
|-------------------------------------|
|---x--6--6--x--6--6--x------6-6--x-6-|
|---x--5--5--x--5--5--x------5-5--x-5-|
|---x--7--7--x--7--7--x------7-7--x-7-|
|-------------------------------------|
|-------------------------------------|
|
|                     |-3-|
|  +E  E     E  S  S  S S S  Q      E
|-------------------------------------|
|---------------6--6--6h8p6-----------|
|--(5)-------5---------------7--------|
|-------------------------------------|
|-------------------------------------|
|-------------------------------------|


                 Chorus
                  C
   Q   Q  H        E  E  S  S  S  S  +S  S  E  E  E
|-15-----------||------------------------------------|
|--------------||-13-13-13-13-13-13-(13)13-13-13-13--|
|-12-----------||------------------------------------|
|--------------||-10-10-10-10-10-10-(10)10-10-10-10--|
|--------------||------------------------------------|
|--------------||------------------------------------|
|
|  W               E  E  E     e      E     e  e  E
|--------------||----12-------12---------------------|
|--------------||----13-------13-----------15-13-----|
|--------------||----12--------------------14-12-----|
|--------------||------------------------------------|
|--------------||------------------------------------|
|--------------||------------------------------------|
|
|  Q   Q  H        Q     S  S  S  S   S  S  E  E  E
|--------------||---------------------------------8--|
|--8\----------||---------------------------8--8-----|
|--------------||--------------5--5---7s=9-----------|
|--5\----------||--------5h=7------------------------|
|--------------||------------------------------------|
|--------------||------------------------------------|


   E   S  S  E  S  S  S  S  E  E  E
|-----------------------------------|
|-13--13-13-13-13-13-13-13-13-13-13-|
|-----------------------------------|
|-10--10-10-10-10-10-10-10-10-10-10-|
|-----------------------------------|
|-----------------------------------|
|
|  E.     S  E  E     E     E  q
|--------12-12-------------12-12----|
|-13-----13-13-------------13-13----|
|-12--------------------------------|
|-----------------------------------|
|-----------------------------------|
|-----------------------------------|
|
|  Q         Q        H
|--8--------------------------------|
|-----------------------------------|
|-----------------------------------|
|-----------------------------------|
|-----------------------------------|
|-----------------------------------|


   E  S  S  S      S   S  S  S  S  E  S  S  S      S
|-----------------------------------------------------|
|-13-13-13-13-----13--13-13-13-13-13-13-13-13-----13--|
|-----------------------------------------------------|
|-10-10-10-10-----10--10-10-10-10-10-10-10-10-----10--|
|-----------------------------------------------------|
|-----------------------------------------------------|
|
|  e  E     E          e     H
|-----------------------------------------------------|
|--8-------------------8------------------------------|
|--8-------------------8------------------------------|
|-----------------------------------------------------|
|-----------------------------------------------------|
|-----------------------------------------------------|
|
|  Q        S     +S   E     Q        E     S     +S
|-----------------------------------------------------|
|----------13b15-(13)----------------------13b15-(13)-|
|-----------------------------------------------------|
|-----------------------------------------------------|
|-----------------------------------------------------|
|-----------------------------------------------------|


   Q   S  S  S  S  S  S  S     S  S  S   S   S
|----------------------------------------------|
|-13--13-13-13-13-13-13-13----13-13-13--13--13-|
|----------------------------------------------|
|-10--10-10-10-10-10-10-10----10-10-10--10--10-|
|----------------------------------------------|
|----------------------------------------------|
|
|  Q   E     e     H
|----------------------------------------------|
|------------8---------------------------------|
|------------8---------------------------------|
|----------------------------------------------|
|----------------------------------------------|
|----------------------------------------------|
|
|  H               E     Q              +E
|-----------------------13b15r=========(13)----|
|----------------------------------------------|
|----------------------------------------------|
|----------------------------------------------|
|----------------------------------------------|
|----------------------------------------------|


  Cm
   E  S  S  E  E  S   E.     S     E.
|---------------------------------------|
|-13-13-13-13-13-13--13-----13----13----|
|---------------------------------------|
|-10-10-10-10-10-10--10-----10----10----|
|---------------------------------------|
|---------------------------------------|
|
|  Q        Q    +E       E  e        E
|---------------------------------------|
|--7--------7----(7)------7--7----------|
|--7--------7----(7)------7--7----------|
|---------------------------------------|
|---------------------------------------|
|---------------------------------------|
|
|  E  Q        E  E       E  E        E
|---------------------------------------|
|----13----------13---------15b17-------|
|-------------14---------14-------------|
|---------------------------------------|
|---------------------------------------|
|---------------------------------------|


  Dbmaj7
   E  S  S  E  S  S  S   S  S  S  S  S  S  S
|--------------------------------------------|
|-13-13-13-13-13-13-13--13-13-13-13-13-13-13-|
|--------------------------------------------|
|-10-10-10-10-10-10-10--10-10-10-10-10-10-10-|
|--------------------------------------------|
|--------------------------------------------|
|
|  H                +Q.                 E
|--------------------------------------------|
|--6----------------(6)----------------------|
|--6----------------(6)----------------------|
|--6----------------(6)----------------------|
|--------------------------------------------|
|--------------------------------------------|
|
|  W
|--------------------------------------------|
|-13-----------------------------------------|
|--------------------------------------------|
|--------------------------------------------|
|--------------------------------------------|
|--------------------------------------------|


        D5    C5          D5    C5
   S  S  S  S  E  S  S  S  S  E  S  E.
|----------------------------------------|
|-13-13-13-13-13-13-13-13-13-13-13-13----|
|----------------------------------------|
|-10-10-10-10-10-10-10-10-10-10-10-10----|
|----------------------------------------|
|----------------------------------------|
|
|  E     S  S  E  E     S  S  E  e     E
|-------10-10--8----------10-10--8-------|
|-------10-10--8----------10-10--8-------|
|----------------------------------------|
|----------------------------------------|
|----------------------------------------|
|----------------------------------------|
|
|  W
|----------------------------------------|
|----------------------------------------|
|----------------------------------------|
|----------------------------------------|
|----------------------------------------|
|----------------------------------------|


                                           Pre-Verse
  C                                         Am
   S  S  S  S  E  S  S  S  S  E  S  S  E     E.    S  E S S  E  S  S S S E
|----------------------------------------||-12----12-12-x-x-12-12-12-x-x-x-|
|-13-13-13-13-13-13-13-13-13-13-13-13-13-||-13----13-13-x-x-13-13-13-x-x-x-|
|----------------------------------------||--------------------------------|
|-10-10-10-10-10-10-10-10-10-10-10-10-10-||--------------------------------|
|----------------------------------------||--------------------------------|
|----------------------------------------||--------------------------------|
|
|  E     S  s  E  E     E     E  Q           E  E     E E    E  E    E   E
|-12-------12----12----------12----------||--------------------------------|
|-13-------13----13----------13----------||--x--5-----x-5----x--5----x---5-|
|-12-------12----12----------12----------||--x--5-----x-5----x--5----x---5-|
|----------------------------------------||--x--7-----x-7----x--7----x---7-|
|----------------------------------------||--------------------------------|
|----------------------------------------||--------------------------------|
|
|  Q           q        E     E  E     E     H               E  E    E   E
|----------------------11----12-11----12-||------------------8s10s===8-----|
|----------------------------------------||------------------8s10s===8-----|
|--------------9--------8-----9--8-----9-||------------------------------9-|
|----------------------------------------||--------------------------------|
|----------------------------------------||--------------------------------|
|----------------------------------------||--------------------------------|


                                           F/A
   S  S  S  S  E        S  S S  S E  e E    E     S  S  Q       Q       e  e
|-12-12-12-12-12--------x-12---12---12---|-12----12-12-----------------12-12--|
|-13-13-13-13-13--------x-13---13---13---|-13----13-13------------------------|
|-14-14-14-14----------------------------|-14---------------------------------|
|----------------------------------------|------------------------------------|
|----------------------------------------|------------------------------------|
|----------------------------------------|------------------------------------|
|
|  E     E     E        E    E    E  E E    E     E     E    E  E    E  E  E
|----------------------------------------|------------------------------------|
|--x-----5-----x--------5----x----5--x-5-|--x-----6-----x----6--x----6--x--6--|
|--x-----5-----x--------5----x----5--x-5-|--x-----5-----x----5--x----5--x--5--|
|--x-----7-----x--------7----x----7--x-7-|--x-----7-----x----7--x----7--x--7--|
|----------------------------------------|------------------------------------|
|----------------------------------------|------------------------------------|
|
|              |--3--|
|  Q           S  S  S  E    H              S  S  E     S  S E  S  S E  Q
|----------------------------------------|------------------------------------|
|----------------------------------------|------------------------------------|
|----------------------------------------|-12----------12------12-------------|
|-------------10h12p10-------------------|-12h14-------12h14---12h14----------|
|----------------------12----------------|------------------------------------|
|----------------------------------------|------------------------------------|


   E      S   S E  S  S   S   S S S  e     e
|-12-----12--12---15-15------12-x-x-12----12-|
|-13-----13--13---15-15------13-x-x-13----13-|
|--------------------------------------------|
|--------------------------------------------|
|--------------------------------------------|
|--------------------------------------------|
|
|  E      E     E  E      E     E    E     E
|--------------------------------------------|
|--x------6-----x--6------x-----6----x-----6-|
|--x------5-----x--5------x-----5----x-----5-|
|--x------7-----x--7------x-----7----x-----7-|
|--------------------------------------------|
|--------------------------------------------|
|
|  S  S  +Q.             +E     E    S  S  E
|--------------------------------------------|
|--------------------------------------------|
|-14p12-(12)------------(12)-----------------|
|-----------------------------------12p10----|
|-----------------------------------------12-|
|--------------------------------------------|


     Am
      E  S  S  E S  S S  S E  e  e
|----12-12-12-12-x-12---12---12-12--|
|----13-13-13-13-x------13----------|
|----14-----------------14----------|
|-----------------------------------|
|-----------------------------------|
|-----------------------------------|
|
|     E  E     E E    E    E  E  E
|-----------------------------------|
|-----x--5-----x-5----x----5--x--5--|
|-----x--5-----x-5----x----5--x--5--|
|-----x--7-----x-7----x----7--x--7--|
|-----------------------------------|
|-----------------------------------|
|
|  a  W
|-----------------------------------|
|-----------------------------------|
|-----------------------------------|
|-12s14-----------------------------|
|-----------------------------------|
|-----------------------------------|


                                        F/A
   S  S  S  S  e S S S  S  e  Q          S   S  S  S E  S  S S  S E  E  S  S
|-11s12-12-12-12-x-x---12-12----------|-12--12-12-12---15-15---12---12-12-12--|
|-12s13-13-13-13-x-x---13-13----------|-13--13-13-13---13-13---13---13-13-13--|
|-------------------------------------|-----------------------------14--------|
|-------------------------------------|---------------------------------------|
|-------------------------------------|---------------------------------------|
|-------------------------------------|---------------------------------------|
|
|  E     E     E E   E     E  E     E    E      E    E  E    E    E  E  E
|-------------------------------------|---------------------------------------|
|--x-----5-----x-5---x-----5--x-----5-|--x------6----x--6----x----6--x--6-----|
|--x-----5-----x-5---x-----5--x-----5-|--x------5----x--5----x----5--x--5-----|
|--x-----7-----x-7---x-----7--x-----7-|--x------7----x--7----x----7--x--7-----|
|-------------------------------------|---------------------------------------|
|-------------------------------------|---------------------------------------|
|
|  H                 Q        S  S  e    H.                          Q
|-------------------------------------|---------------------------------------|
|-------------------------------------|---------------------------------------|
|-------------------------------------|-10--------------------------10--------|
|----------------------------12p10----|-10--------------------------10--------|
|----------------------------------12-|-12------------------------------------|
|-------------------------------------|---------------------------------------|


  Am7
   E     S  S  +S   S  S  S  Q    Q
|-------15-15-(15)-15-15-15-15---15---||
|-------------------------------------||
|-------12-12-(12)----------12---12---||
|-------------------------------------||
|-------------------------------------||
|-------------------------------------||
|
|  E     E      E      E     E E  E E
|-------------------------------------||
|--x-----8------x------8-----x-8--x-8-||
|--x-----5------x------5-----x-5--x-5-||
|--x-----7------x------7-----x-7--x-7-||
|-------------------------------------||
|-------------------------------------||
|
|  S  S  E      H.
|-------------------------------------||
|-13p10-------------------------------||
|-------12-----12---------------------||
|-------------------------------------||
|--------------10---------------------||
|-------------------------------------||


 2nd Verse
  N.C.
  E  e    E.      S S  S E  e  e    E.    S E    S  S S  S E    E E
|-x-12---12------12---12---12-12-|-12----12-----12-12---12-----12------|
|-x-13---13------13---12---12-12-|-12----12-----12-12---12-----12------|
|--------------------------------|-------------------------------------|
|--------------------------------|-------------------------------------|
|--------------------------------|-------------------------------------|
|--------------------------------|-------------------------------------|
|
| E  S S  E    E    E    E  E  E    E  S  S E    S  S E    S S  E S S
|--------------------------------|-------------------------------------|
|-x--8-8--x----8----x----8-----8-|--x--8--8------8--8------8-8----8-8--|
|-x--9-9--x----9----x----9-----9-|--x--9--9------9--9------9-9----9-9--|
|--------------------------------|-------------------------------------|
|--------------------------------|-------------------------------------|
|--------------------------------|-------------------------------------|
|
| Q       S  S S  S H               Q       S S  E    Q         Q
|---------7h10p7-----------------|-------------------------------------|
|--------------------------------|-------------------------------------|
|--------------------------------|----------7p5-------5----------------|
|--------------------------------|---------------7---------------------|
|--------------------------------|-------------------------------------|
|--------------------------------|-------------------------------------|


        Gm                          F#mGm
   E     S  S  e S  S S  S E  E E    S  E    S E  S  S S  S E  E          E
|-------10-10-10---10---10---10---|--9s10---10---10-10---10---10------------|
|-------11-11-11---11---11---11---|-10s11---11---11-11---11---11------------|
|-------12-12-12---12---12---12---|-11s12---12---12-12---12---12------------|
|---------------------------------|-----------------------------------------|
|---------------------------------|-----------------------------------------|
|---------------------------------|-----------------------------------------|
|
|  E     S  S  E E    E    E  E E    E    E    E  E    E    E  E          E
|----------------8--------------8-|---------------------------------------8-|
|--------8--8----8----x----8--x-8-|--x----8----x--8----x----8--x----------8-|
|--------8--8----8----x----8--x-8-|--x----8----x--8----x----8--x----------8-|
|---------------------------------|-----------------------------------------|
|---------------------------------|-----------------------------------------|
|---------------------------------|-----------------------------------------|
|
|  W                                 H                 Q       S      +S  E
|--8------------------------------|-----------------------------------------|
|-11b13---------------------------|-----------------------------------------|
|---------------------------------|---------------------------10pb12r(10)p8-|
|---------------------------------|-----------------------------------------|
|---------------------------------|-----------------------------------------|
|---------------------------------|-----------------------------------------|


  Em                                    F#6G6         G5
   E.      S E  S  S S  S S  S  E E      S  S  S  S E  S  S S  S S  S S  S E
|-12------12---12-12---15---12-12-----|-11s12-12-12---15-15---12--------12---|
|-12------12---12-12---15---12-12-----|-11s12-12-12---15-15---12---12---12---|
|------------------------------12-----|-11s12-12-12---12-12--------12--------|
|-------------------------------------|--------------------------------------|
|-------------------------------------|--------------------------------------|
|-------------------------------------|--------------------------------------|
|
|  E    S  S E  S  S E    S  S  E S S    E     S  S E  S  S E    S  S E    E
|-------------------------------------|--------------------------------------|
|-------8--8-x--8--8-x----8--8--x-8-8-|--x-----8--8-x--8--8-x----8--8-x----8-|
|-------9--9-x--9--9-x----9--9--x-9-9-|--x-----9--9-x--9--9-x----9--9-x----9-|
|-------------------------------------|--------------------------------------|
|-------------------------------------|--------------------------------------|
|-------------------------------------|--------------------------------------|
|
|  W                                     W
|-------------------------------------|--------------------------------------|
|-------------------------------------|--------------------------------------|
|-10b12-------------------------------|--------------------------------------|
|-------------------------------------|--------------------------------------|
|-------------------------------------|--------------------------------------|
|-------------------------------------|--------------------------------------|


  Cm
   S     S  S  S   E  S S S S E  e E
|-10----10-10-10---x--x-x---x---10---|
|-11----11-11-11---x--------x---11---|
|------------------------------------|
|------------------------------------|
|------------------------------------|
|------------------------------------|
|
|  E        E      E  E   E   E  E E
|---------------------8---x---8--x-8-|
|--x--------8------x--8---x---8--x-8-|
|--x--------8------x--8---x---8--x-8-|
|------------------------------------|
|------------------------------------|
|------------------------------------|
|
|  Q              +Q      H
|------------------------------------|
|-11---------------------------------|
|-10b12r=========(10)-----8----------|
|------------------------------------|
|------------------------------------|
|------------------------------------|


   S     E      S  E    S  S   S   S  S  S  e  e
|--9s===10---------x---10-10------10----10-10-10-|
|-10s===11---------x---11-11------11----11-11-11-|
|------------------------------------------------|
|------------------------------------------------|
|------------------------------------------------|
|------------------------------------------------|
|
|  E          E    E    E      E      E     E  E
|----------------------------------------------8-|
|--x----------8----x----8------x------8-----x--8-|
|--x----------8----x----8------x------8-----x--8-|
|--x---------10----x---10------x-----10-----x----|
|------------------------------------------------|
|------------------------------------------------|
|
|  |---3---|
|  S  S    S  E    S S  E     +H
|------------------------------------------------|
|------------------------------------------------|
|--8h10p===8-------------------------------------|
|------------10---10p8---------------------------|
|----------------------10----(10)----------------|
|------------------------------------------------|


  N.C.                               F#6G6         G5
   E  S  S  e  E   S  S E    E S S    S  S  S  S E  S  S S  S S  S  e  e
|-12-12-12-12-15-----12-----12-x-x-|-11s12-12-12---15-15---15---15-15-15---|
|-12-12-12-12-15-----12-----12-x-x-|-11s12-12-12---15-15---15---15-15-15---|
|----------------------------------|-11s12---------12-12-------------------|
|----------------------------------|---------------------------------------|
|----------------------------------|---------------------------------------|
|----------------------------------|---------------------------------------|
|
|  E  S  S  E  S S E    S S  E S S    E     S  S E  S  S E    S  S  E  S S
|----------------------------------|---------------------------------------|
|-----8--8--x--8-8-x----8-8--x-8-8-|--x-----8--8-x--8--8-x----8--8--x--8-8-|
|-----9--9--x--9-9-x----9-9--x-9-9-|--x-----9--9-x--9--9-x----9--9--x--9-9-|
|----------------------------------|---------------------------------------|
|----------------------------------|---------------------------------------|
|----------------------------------|---------------------------------------|


        Gm
   E     S  S  e  S  S S  S E    S  S E
|-------13-13-13-13-13---13-----13-13-----|
|-------11-11-11-11-11---11-----11-11-----|
|-----------------------------------------|
|-----------------------------------------|
|-----------------------------------------|
|-----------------------------------------|
|
|  E     S  S  E  S  S E    S S  E    S S
|-----------------------------------------|
|--------8--8--x--8--8-x----8-8--x----8-8-|
|--------7--7--x--7--7-x----7-7--x----7-7-|
|--------8--8--x--8--8-x----8-8--x----8-8-|
|-----------------------------------------|
|-----------------------------------------|
|
| Gtr III
|  W
|-----------------------------------------|
|--8--------------------------------------|
|-10b12-----------------------------------|
|-----------------------------------------|
|-----------------------------------------|
|-----------------------------------------|


  E°
   E      S  S   E   S  S  S   S  e    E  E
|-12-----12-12---x--12-12-----12-12---10------|
|-11-----11-11---x--11-11-----11-11---11-13---|
|---------------------------------------------|
|---------------------------------------------|
|---------------------------------------------|
|---------------------------------------------|
|
|  E      S  S   E   S  S  E      S S  E  S S
|---------------------------------------------|
|---------8--8---x---8--8---------8-8--x--8-8-|
|---------9--9---x---9--9---------9-9--x--9-9-|
|---------------------------------8-8--x--8-8-|
|---------------------------------------------|
|---------------------------------------------|
|
|  Q            +E   E    +Q           Q
|---------------------------------------------|
|--8------------------------------------------|
|-10pb13r======(10)--9----(9)-----------------|
|---------------------------------------------|
|---------------------------------------------|
|---------------------------------------------|


  Am                                                       G/B F/A
   S S E    e S  S S  S E    e E      E   S  S  e  S  S  e  Q   E
|-17-------17---17---17-----17-----|-17--17-17-17-17-17-17-15--13-|
|-17-------17---17---17-----17-----|-17--17-17-17-17-17-17-15--13-|
|-17------------------------17-----|-17--------------------16--14-|
|----------------------------------|------------------------------|
|----------------------------------|------------------------------|
|----------------------------------|------------------------------|
|
|  E   S S  E S  S S  S S S  E S S    E   S  S  E  S  S  E  Q   E
|----------------------------------|------------------------------|
|------5-5--x-5--5-5----5-5--x-5-5-|--x---5--5--x--5--5--5--8---6-|
|------5-5--x-5--5-5----5-5--x-5-5-|--x---5--5--x--5--5--5--7---5-|
|------7-7--x-7--7-7----7-7--x-7-7-|--x---7--7--x--7--7--7--9---7-|
|----------------------------------|------------------------------|
|----------------------------------|------------------------------|
|
|  H               E    Q      E     +H                  e  Q   E
|----------------------------------|------------------------------|
|-----------------------5------5---|-(5)-----------------5--------|
|----------------------------------|------------------------7---5-|
|----------------------------------|------------------------------|
|----------------------------------|------------------------------|
|----------------------------------|------------------------------|


   +E.    S  e  S  S  e      e     Q
|-(13)---13-13-13-13-13-----13----13---|
|-(13)---13-13-13-13-13-----13----13---|
|-(14)------14--------------------14---|
|--------------------------------------|
|--------------------------------------|
|--------------------------------------|
|
|   E  S  S  E  S  S  E      S  S  E E
|--------------------------------------|
|---x--6--6--x--6--6--x------6--6--x-6-|
|---x--5--5--x--5--5--x------5--5--x-5-|
|---x--7--7--x--7--7--x------7--7--x-7-|
|--------------------------------------|
|--------------------------------------|
|
|                     |-3-|
|  +Q        Q        S S S  Q.
|--------------------------------------|
|---------------------6h8p6------------|
|--(5)-----------------------7---------|
|--------------------------------------|
|--------------------------------------|
|--------------------------------------|


                 Chorus
                  C
   Q   Q  H        E  E  S  S  S  S  +S  S  E  E  E
|-15-----------||------------------------------------|
|--------------||-13-13-13-13-13-13-(13)13-13-13-13--|
|-12-----------||------------------------------------|
|--------------||-10-10-10-10-10-10-(10)10-10-10-10--|
|--------------||------------------------------------|
|--------------||------------------------------------|
|
|  W               E  E  E     e      E     e  e  E
|--------------||----12-------12---------------------|
|--------------||----13-------13-----------15-13-----|
|--------------||----12--------------------14-12-----|
|--------------||------------------------------------|
|--------------||------------------------------------|
|--------------||------------------------------------|
|
|                                           ~~
|  Q   Q  H        Q     S  S  E      S  S  Q     E
|--------------||---------------------------------8--|
|--8\----------||---------------------------8--------|
|--------------||--------------5------7s=9-----------|
|--5\----------||--------5h=7------------------------|
|--------------||------------------------------------|
|--------------||------------------------------------|


   E   S  S  E  S  S  S  S  E  E  E
|-----------------------------------|
|-13--13-13-13-13-13-13-13-13-13-13-|
|-----------------------------------|
|-10--10-10-10-10-10-10-10-10-10-10-|
|-----------------------------------|
|-----------------------------------|
|
|  E.     S  E  E     E     E  Q
|--------12-12-------------12-12----|
|-13-----13-13-------------13-13----|
|-12--------------------------------|
|-----------------------------------|
|-----------------------------------|
|-----------------------------------|
|
|  Q         Q        H
|--8--------------------------------|
|-----------------------------------|
|-----------------------------------|
|-----------------------------------|
|-----------------------------------|
|-----------------------------------|


  Cm
   E           S   S  S  S  S  S  S  S  E  S  S  S  S
|------------------------------------------------------|
|-13----------13--13-13-13-13-13-13-13-13-13-13-13-13--|
|------------------------------------------------------|
|-10----------10--10-10-10-10-10-10-10-10-10-10-10-10--|
|------------------------------------------------------|
|------------------------------------------------------|
|
|  e           E      E     e     H
|------------------------------------------------------|
|--8------------------------8--------------------------|
|--8------------------------8--------------------------|
|------------------------------------------------------|
|------------------------------------------------------|
|------------------------------------------------------|
|
|  S      +S   Q.                 H
|-10pb11r(10)p=8---------------------------------------|
|------------------------------------------------------|
|------------------------------------------------------|
|------------------------------------------------------|
|------------------------------------------------------|
|------------------------------------------------------|


                                            D7
   Q   S  S  S  S  S  S  S  S  S  S  S  S    E  S  S  E  E  S   E.    S   E.
|-----------------------------------------|------------------------------------|
|-13--13-13-13-13-13-13-13-13-13-13-13-13-|-13-13-13-13-13-13--13----13--13----|
|-----------------------------------------|------------------------------------|
|-10--10-10-10-10-10-10-10-10-10-10-10-10-|-10-10-10-10-10-10--10----10--10----|
|-----------------------------------------|------------------------------------|
|-----------------------------------------|------------------------------------|
|
|  Q   E     e     H                         Q        Q    +E      E  e      E
|-----------------------------------------|------------------------------------|
|------------8----------------------------|--7--------7----(7)-----7--7--------|
|------------8----------------------------|--7--------7----(7)-----7--7--------|
|-----------------------------------------|------------------------------------|
|-----------------------------------------|------------------------------------|
|-----------------------------------------|------------------------------------|
|
|  H               Q           Q             H              Q         Q
|------------------8-----------8----------|--------------------------14\-------|
|-----------------------------------------|------------------------------------|
|-----------------------------------------|------------------------------------|
|-----------------------------------------|------------------------------------|
|-----------------------------------------|------------------------------------|
|-----------------------------------------|------------------------------------|


  Dbmaj7
   E   S  S  E  S  S  S  S  S  S  S  S  S  S
|--------------------------------------------|
|-13--13-13-13-13-13-13-13-13-13-13-13-13-13-|
|--------------------------------------------|
|-10--10-10-10-10-10-10-10-10-10-10-10-10-10-|
|--------------------------------------------|
|--------------------------------------------|
|
|  H.                             Q
|--------------------------------------------|
|--6-----------------------------------------|
|--6-----------------------------------------|
|--6-----------------------------------------|
|--------------------------------------------|
|--------------------------------------------|


        D5    C5          D5    C5
   S  S  S  S  E  S  S  S  S  E  S  E.
|----------------------------------------|
|-13-13-13-13-13-13-13-13-13-13-13-13----|
|----------------------------------------|
|-10-10-10-10-10-10-10-10-10-10-10-10----|
|----------------------------------------|
|----------------------------------------|
|
|  E     S  S  E  E     S  S  E  e     E
|-------10-10--8----------10-10--8-------|
|-------10-10--8----------10-10--8-------|
|----------------------------------------|
|----------------------------------------|
|----------------------------------------|
|----------------------------------------|


  C
   S  S  S  S  E  S  S  S  S  E  S  S  E
|----------------------------------------|
|-13-13-13-13-13-13-13-13-13-13-13-13-13-|
|----------------------------------------|
|-10-10-10-10-10-10-10-10-10-10-10-10-10-|
|----------------------------------------|
|----------------------------------------|
|
|  E     S  s  E  E     E     E  Q
|-12-------12----12----------12----------|
|-13-------13----13----------13----------|
|-12-------12----12----------12----------|
|----------------------------------------|
|----------------------------------------|
|----------------------------------------|
|
| Gtr III
|  E     E     E  E     E     E  E     E
|----------------------------------------|
|----------------------------------------|
|-----------------5-----8s====9--8s====9-|
|--------5-----7-------------------------|
|----------------------------------------|
|----------------------------------------|


   E   E  S  S  S  S  +S   S  E      E    E    E   S  S  E  S  S  S  S  E  E  E
|-------------------------------------------|------------------------------------|
|-13--13-13-13-13-13-(13)-13-13-----13---13-|-13--13-13-13-13-13-13-13-13-13-13--|
|-------------------------------------------|------------------------------------|
|-10--10-10-10-10-10-(10)-10-10-----10---10-|-10--10-10-10-10-10-10-10-10-10-10--|
|-------------------------------------------|------------------------------------|
|-------------------------------------------|------------------------------------|
|
|  E   E  E     S  S   E      S S    S S  E    E   S  S  E  E     E     E  E  E
|-----12-------12------------10------8------|--8-----12-12-------------12-12-----|
|-----13-------13------------10------8------|--8-----13-13-------------13-13-----|
|-----12------------------------------------|------------------------------------|
|-------------------------------------------|------------------------------------|
|-------------------------------------------|------------------------------------|
|-------------------------------------------|------------------------------------|
|
|  Q      Q            Q          a  E    E   +Q         Q        H
|-----------------------------------------8-|-(8)--------------------------------|
|-----------------------------------------8-|-(8)--------------------------------|
|--5\-----------------------------8h=9------|------------------------------------|
|-------------------------------------------|------------------------------------|
|-------------------------------------------|------------------------------------|
|-------------------------------------------|------------------------------------|


  Cm
   E  S  S  S  S  S  S  S  S  E      S   S  S  S
|------------------------------------------------|
|-13-13-13-13-13-13-13-13-13-13-----13--13-13-13-|
|------------------------------------------------|
|-10-10-10-10-10-10-10-10-10-10-----10--10-10-10-|
|------------------------------------------------|
|------------------------------------------------|
|
|  e  E     E     e     H
|------------------------------------------------|
|--8--------------8------------------------------|
|--8--------------8------------------------------|
|------------------------------------------------|
|------------------------------------------------|
|------------------------------------------------|
|
|  Q        S  S  S  S  S  S  S  S  +Q
|------------------------------------------------|
|-----------8p=6---------------------------------|
|-----------------8-----8h10p=8------------------|
|-------------------------------10-(10)----------|
|------------------------------------------------|
|------------------------------------------------|


     Q   S  S  S  S  S  S  S  S  S     S    S  S
|------------------------------------------------|
|---13--13-13-13-13-13-13-13-13-13----13---13-13-|
|------------------------------------------------|
|---10--10-10-10-10-10-10-10-10-10----10---10-10-|
|------------------------------------------------|
|------------------------------------------------|
|
|    Q   E     e     H
|------------------------------------------------|
|--------------8---------------------------------|
|--------------8---------------------------------|
|------------------------------------------------|
|------------------------------------------------|
|------------------------------------------------|
|
|                                |---3---|
| a  H               Q           S  S    S  E
|------------------------------------------------|
|------------------------------------------------|
|-7h=8---------------------------8h10p===8-------|
|------------------------------------------10----|
|------------------------------------------------|
|------------------------------------------------|


    D7
     E   S  S  E  E  S   E   S  S  E   S
|----------------------------------------|
|---13--13-13-13-13-13--13-----13-13-----|
|----------------------------------------|
|---10--10-10-10-10-10--10-----10-10-----|
|----------------------------------------|
|----------------------------------------|
|
|    Q         Q    +E     E    e    E
|----------------------------------------|
|----7---------7----(7)----7----7--------|
|----7---------7----(7)----7----7--------|
|----------------------------------------|
|----------------------------------------|
|----------------------------------------|
|
| a  H.                         Q
|----------------------------------------|
|----------------------------------------|
|-9s11-----------------------------------|
|----------------------------------------|
|----------------------------------------|
|----------------------------------------|


    Dbmaj7
     E   S  S  E  S  S  S  S  S  S  S  S  S  S
|----------------------------------------------|
|---13--13-13-13-13-13-13-13-13-13-13-13-13-13-|
|----------------------------------------------|
|---10--10-10-10-10-10-10-10-10-10-10-10-10-10-|
|----------------------------------------------|
|----------------------------------------------|
|
|    H.                             Q
|----------------------------------------------|
|----6-----------------------------------------|
|----6-----------------------------------------|
|----6-----------------------------------------|
|----------------------------------------------|
|----------------------------------------------|
|
| a  W
|----------------------------------------------|
|----------------------------------------------|
|-8s10-----------------------------------------|
|----------------------------------------------|
|----------------------------------------------|
|----------------------------------------------|


        D5    C5           D5    C5
   S  S  S  S  E  S  S  S   S  E  S  E   S
|------------------------------------------|
|-13-13-13-13-13-13-13-13--13-13-13-13-----|
|------------------------------------------|
|-10-10-10-10-10-10-10-10--10-10-10-10-----|
|------------------------------------------|
|------------------------------------------|
|
|  E     S  S  E  E     S   S  E  e    E
|-------10-10--8-----------10-10--8--------|
|-------10-10--8-----------10-10--8--------|
|------------------------------------------|
|------------------------------------------|
|------------------------------------------|
|------------------------------------------|
|
|  E     E     E  E    +H
|------------------------------------------|
|------------------------------------------|
|-----------------5----(5)-----------------|
|--------5-----7---------------------------|
|------------------------------------------|
|------------------------------------------|


                                           Interlude
  C                                         Fmaj7
   S  S  S  S  E  S  S  S  S  E  S  S  E     W
|----------------------------------------||-------|
|-13-13-13-13-13-13-13-13-13-13-13-13-13-||-10----|
|----------------------------------------||--            
Submit corrections

↑ Back to top | Tablatures and chords for acoustic guitar and electric guitar, ukulele, drums are parodies/interpretations of the original songs. You may use it for private study, scholarship, research or language learning purposes only