Home » G » Ghost »

Ghost - Mary On A Cross Chords

Artists:  A B C D E F G H I J K L M N O P Q R S T U V W X Y Z # 

Mary On A Cross Chords

(ver. 1) Click to play this song!
Ghost
 Rating:
4.3/5 (6 votes)
                [Intro]
 
e|---------------------------------------------------------------------------|
B|---------------------------------------------------------------------------|
G|-----------------------------6-6-------------------------------------------|
D|-----------8-6-8---8-8-8-6-3-6-6-6-----------------------------------------|
A|---6-------8-6-8---8-8-8-6-3-----6-----------------------------------------|
E|-4---4-6-------------------------------------------------------------------| 2x
 
 
 
 
[Verse]
 
e|---------------------------------------------------------------------------|
B|---------------------------------------------------------------------------|
G|-----------------------------6-6-------------------------------------------|
D|-----------8-6-8---8-8-8-6-3-6-6-6-----------------------------------------|
A|---6-------8-6-8---8-8-8-6-3-----6-----------------------------------------|
E|-4---4-6-------------------------------------------------------------------| 3x
 
 
e|---------------------------------------------------------------------------|
B|---------------------------------------------------------------------------|
G|---------6-6---------------------------------------------------------------|
D|---------4-4---------------------------------------------------------------|
A|---6-----------4---4-4-8---8-8-6-------------------------------------------|
E|-4---4---------2---2-2-6---6-6-4-------------------------------------------|
 
 
 
 
[Pre-Chorus]
 
e|---------------------------------------------------------------------------|
B|---------------------------------------------------------------------------|
G|---------------------------------------------------------------------------|
D|-11-11-11-11-11-11-11-11-11-11-11-11---------------------------------------|
A|-9--9--9--9--9--9--9--9--9--9--9--9----6-----------------------------------|
E|-------------------------------------4---4---------------------------------|1x
 
 
 
 
[Chorus]
 
e|---------------------------------------------------------------------------|
B|---------------------------------------------------------------------------|
G|---------------------------------------------------------------------------|
D|-6---6-6-6-----------------------------------------------------------------|
A|-4---4-4-4-8---8-8-8---3---3-3-3---6---6-6-6-------------------------------|
E|-----------6---6-6-6---1---1-1-1---4---4-4-4-------------------------------| 2x
 
e|---------------------------------------------------------------------------|
B|---------------------------------------------------------------------------|
G|---------------------------------------------------------------------------|
D|-------------6---6-6-6-----------------------------------------------------|
A|-4---4-4-4---4---4-4-4---6---6-6-6---8---8-6---6-4-------------------------|
E|-2---2-2-2---------------4---4-4-4---6---6-4---4-2-------------------------|
 
 
e|---------------------------------------------------------------------------|
B|---------------------------------------------------------------------------|
G|---------------------------------------------------------------------------|
D|---------6---6-6-6---------------------------------------------------------|
A|-4-4-4---4---4-4-4---6---6-6---6-6-----------------------------------------|
E|-2-2-2---------------4---4-4---4-4-----------------------------------------|
 
 
 
 
[Interlude]
 
e|---------------------------------------------------------------------------|
B|---------------------------------------------------------------------------|
G|-----------------------------6-6-------------------------------------------|
D|-----------8-6-8---8-8-8-6-3-6-6-6-----------------------------------------|
A|---6-------8-6-8---8-8-8-6-3-----6-----------------------------------------|
E|-4---4-6-------------------------------------------------------------------|
 
e|-14-13/14\13-11-13------14-13/14\13-11-13------16--------------------------|
B|-------------------11---------------------11------16-14-13-----------------|
G|---------------------------------------------------------------------------|
D|---------------------------------------------------------------------------|
A|---------------------------------------------------------------------------|
E|---------------------------------------------------------------------------|
 
e|---------------------------------------------------------------------------|
B|-14-13/14\13-11-13---------------------------------------------------------|
G|-------------------13------------------------------------------------------|
D|---------------------------------------------------------------------------|
A|---------------------------------------------------------------------------|
E|---------------------------------------------------------------------------|
 
 
 
 
[Verse 2]
 
e|---------------------------------------------------------------------------|
B|---------------------------------------------------------------------------|
G|---------------------------6-6---------------------------------------------|
D|---------8-6-8---8-8-8-6-3-6-6-6-------------------------------------------|
A|---6-----8-6-8---8-8-8-6-3-----6-------------------------------------------|
E|-4---4-6-------------------------------------------------------------------| 3x
 
e|---------------------------------------------------------------------------|
B|---------------------------------------------------------------------------|
G|---------6-6---------------------------------------------------------------|
D|---------4-4---------------------------------------------------------------|
A|---6-----------4---4-4-8---8-8-6-------------------------------------------|
E|-4---4---------2---2-2-6---6-6-4-------------------------------------------|
 
[Pre-Chorus 2]
 
e|---------------------------------------------------------------------------|
B|---------------------------------------------------------------------------|
G|---------------------------------------------------------------------------|
D|-10-10-10-10-10-10-10-10-11-11-11-11-11-11-11-11-11-11-11-11-11-11-11------|
A|-8--8--8--8--8--8--8--8--9--9--9--9--9--9--9--9--9--9--9--9--9--9--9-------|
E|---------------------------------------------------------------------------|
 
e|---------------------------------------------------------------------------|
B|---------------------------------------------------------------------------|
G|---------------------------------------------------------------------------|
D|-11-11-11-11-11------------------------------------------------------------|
A|-9--9--9--9--9----6--------------------------------------------------------|
E|----------------4---4------------------------------------------------------|
 
 
 
[Bridge]
 
e|-9----6---1---4---9----6---1-----------------------------------------------|
B|-9----6---1---4---9----6---1-----------------------------------------------|
G|-10---6---1---5---10---6---1-----------------------------------------------|
D|-11---8---3---6---11---8---3-----------------------------------------------|
A|---------------------------------------------------------------------------|
E|---------------------------------------------------------------------------|
 
e|---------------------------------------------------------------------------|
B|---------------------------------------------------------------------------|
G|---------------------------------------------------------------------------|
D|---------------------------------------------------------------------------|
A|-6-6-6-6-6-6-6-6-----------------------------------------------------------|
E|-4-4-4-4-4-4-4-4-----------------------------------------------------------|
 
 
[Chorus]
 
e|---------------------------------------------------------------------------|
B|---------------------------------------------------------------------------|
G|---------------------------------------------------------------------------|
D|-------------------------6---6-6-6-----------------------------------------|
A|-8---8-8-8---4---4-4-4---4---4-4-4---6---6---8---8-------------------------|
E|-6---6-6-6---2---2-2-2---------------4---4---5---5-------------------------|
 
e|---------------------------------------------------------------------------|
B|---------------------------------------------------------------------------|
G|---------------------------------------------------------------------------|
D|-------------6---6-6-6-----------------------------------------------------|
A|-4---4-4-4---4---4-4-4---6---6-6-6---8---8-6---6---------------------------|
E|-2---2-2-2---------------4---4-4-4---6---6-4---4---------------------------|
 
 
e|---------------------------------------------------------------------------|
B|---------------------------------------------------------------------------|
G|---------------------------------------------------------------------------|
D|-------------6---6-6-6-----------------------------------------------------|
A|-4---4-4-4---4---4-4-4---6-6-6-6-6-6-6-6-6-6-6-6-----6---------------------|
E|-2---2-2-2---------------4-4-4-4-4-4-4-4-4-4-4-4---4---4-------------------|
 
 
 
 
[Outro]
 
e|---------------------------------------------------------------------------|
B|---------------------------------------------------------------------------|
G|---------------------------------------------------------------------------|
D|-------------------------6---6-6-6-----------------------------------------|
A|-8---8-8-8---4---4-4-4---4---4-4-4---6---6---8---8-------------------------|
E|-6---6-6-6---2---2-2-2---------------4---4---5---5-------------------------| 3x
 
e|---------------------------------------------------------------------------|
B|---------------------------------------------------------------------------|
G|-----------------------------------------10--------------------------------|
D|-------------------------6---6-6-6-------11--------------------------------|
A|-8---8-8-8---4---4-4-4---4---4-4-4---6---11--------------------------------|
E|-6---6-6-6---2---2-2-2---------------4---9---------------------------------|
            
Submit corrections

↑ Back to top | Tablatures and chords for acoustic guitar and electric guitar, ukulele, drums are parodies/interpretations of the original songs. You may use it for private study, scholarship, research or language learning purposes only