» » »

George Michael - Faith Bass

Artists:  A B C D E F G H I J K L M N O P Q R S T U V W X Y Z # 

Faith Bass

(ver. 2) Click to play this song!
George Michael
 Rating:
4/5 (5 votes)

 Faith lessons Tabs too difficult? Try these video lessons and learn fast
 
                George Michael - Faith 
Bass Tab

Hey this my first tab on the site, its about 95% correct if you find any errors 
just comment what they are and what they should be and ill fix it up :D.


Standard Tuning 

Verse

   B               B               E               B
G||---------------|---------------|---------------|---------------|
D||---------------|---------------|---------------|---------------|
A||---------------|---------------|-7--7--7--7-7--|---------------| x2
E||-7--7--7--7-7--|-7--7--7--7-7--|---------------|-7--7--7--7-7--|

Pre-Chorus

G||---------------|---------------|---------------|---------------|
D||---------------|---------------|---------------|---------------|
A||-7--7--7--7-7--|---------------|-7--7--7--7-7--|------9-7-9-6-7|
E||---------------|-7--7--7--7-7--|---------------|7-9-11---------|
                                                  
G||---------------|---------------|---------------|---------------|
D||---------------|---------------|---------------|---------------|
A||-7--7--7--7-7--|---------------|-4--4--4--4-4--|---------------|
E||---------------|-7--7--4--4-4--|---------------|-2--2--2-------|
                                                          ^Let Ring
Chorus
   B               B               B               B
G||---------------|---------------|---------------|---------------|
D||---------------|---------------|---------------|---------------|
A||---------------|---------------|---------------|---------------|
E||-7--7--7--7-7--|-7--7--7--7-7--|-7--7--7--7-7--|-7--7--7--7-7--|

Verse x2

Pre-Chorus

Chorus

Instrumental 
   B               B               E               B
G||---------------|---------------|---------------|---------------|
D||---------------|---------------|---------------|---------------|
A||---------------|---------------|-7--7--7--7-7--|---------------| x2
E||-7--7--7--7-7--|-7--7--7--7-7--|---------------|-7--7--7--7-7--|

Pre-Chorus

Chorus


Thats it, Enjoy :)

K-RyaN™
            
Submit corrections


        Faith lessons Hard to play? Try these video lessons and learn fast Faith lessons
        
↑ Back to top | Tablatures and chords for acoustic guitar and electric guitar, ukulele, drums are parodies/interpretations of the original songs. You may use it for private study, scholarship, research or language learning purposes only