» » »

Gazette - Shichi Gatsu Youka Tabs

Artists:  A B C D E F G H I J K L M N O P Q R S T U V W X Y Z # 

Shichi Gatsu Youka Tabs

(ver. 1) Click to play this song!
Gazette
 Rating:
4/5 (4 votes)
    Shichi Gatsu Youka lessons Tabs too difficult? Try these video lessons and learn fast
                This is my very first tab and I'm new to this. Please tab the rest of the song if 
possible and I would appreciate if someone could make a complete
Guitar-Pro file of this song. There are also other awesome GazettE songs that hasn't 
been tabbed yet, there is a request list at the bottom of this page.

SUBSCRIBE:

Intro:

E||------------------------------15----------|
B||------19--17--15--15--17--19------19--17--|
G||--16--------------------------------------|
D||------------------------------------------|
A||------------------------------------------|
E||------------------------------------------|

|----------------------14------------------|
|------14--14--15--17------12--14--15------|
|------------------------------------------|
|------------------------------------------|
|------------------------------------------|
|------------------------------------------|

|------------------------------------------|
|------14--15--17----15--17--19------------|
|---------------------------------14--16---|
|------------------------------------------|
|------------------------------------------|
|------------------------------------------|

Solo:

--14--15--14------------------------------14-|
--------------17--15--14--15--14--15--17-----|
---------------------------------------------|
---------------------------------------------|
---------------------------------------------|
---------------------------------------------|

--15--14--15--17---------------------|
------------------17--19-------------|
-------------------------------------|
-------------------------------------|
-------------------------------------|
-------------------------------------|



--22--21----------22--21----------22b--22-----|
----------22--19----------19---------------19-|
------------------------------21--------------|
----------------------------------------------|
----------------------------------------------|
----------------------------------------------|


--------------------17---------------------------15--|
--20-19-17-19-17-------17-19-17--15--17--15----------|
-----------------19--------------------------18------|
-----------------------------------------------------|
-----------------------------------------------------|
-----------------------------------------------------|


--------------------------------------22--21-|
--15-17-15-17-15-14-15-14--------------------|
--------------------------14-----------------|
------------------------------14--12---------|
---------------------------------------------|
---------------------------------------------|


------24--24--22--21--22--|
--22----------------------|
--------------------------|
--------------------------|
--------------------------|
--------------------------|

Notes:

Spred the Gazerock!
Here are popular gazerock songs that hasn't been tabbed yet:

* Juunana Sai (Key of D#minor)
* Katherine in the trunk (Key of G#minor)
* Anata no tame ni kono inochi (Only bass tabs are available...)
* Shiikureta haru, kawarenu haru
* Machibouke No Kouen De...
* Doro Darake no Seishun
* [DIS]
* Sentimental ni onigokko
* Kantou Dogeza Kumiai
* Okuribi

New Songs:

* Sugar Pain
* An unbearable act
* The murderous intent
* Hesitating means death
* Vortex
* Unceratin Sense

Please tab these songs if you are able to, and don't forget to subscribe! :)

SUBSCRIBE:
            
Submit corrections

↑ Back to top | Tablatures and chords for acoustic guitar and electric guitar, ukulele, drums are parodies/interpretations of the original songs. You may use it for private study, scholarship, research or language learning purposes only