» » »

Gazette - Juunana Sai Bass

Artists:  A B C D E F G H I J K L M N O P Q R S T U V W X Y Z # 

Juunana Sai Bass

(ver. 1) Click to play this song!
Gazette
 Rating:
4/5 (4 votes)


 Juunana Sai lessons Tabs too difficult? Try these video lessons and learn fast
 
                This is my very first bass tab and I'm new to this. Please tab the guitar part of this 
song if
possible and I would appreciate if someone could make a complete
Guitar-Pro file of this song. There are a lot of awesome GazettE songs that hasn't
been tabbed yet, so I've attached a request list at the bottom of this page with the 
name of the songs.
I figured this out by ear but can't figure out the whole guitar part, please subscribe 

SUBSCRIBE:

INTRO

G||-------------------------|-----------------------|
D||-------------------------|-----------------------|
A||--5----10----10----12----|--12----5---------5----|
E||-------------------------|-------------5---------|

-------------------------|--------------12----14----|
-------------------------|--11----14----------------|
--5----10----10----12----|--------------------------|
-------------------------|--------------------------|

VERSE (Repeat)

----------------------|--------------------------|
----------------------|--------------------------|
--5----5----7----8----|--5----5----7----8--------|
----------------------|---------------------5----|


-----------------|----------------------|
-----------------|----------------------|
-----------------|----------------------|
--3----3----0----|--1----0----3----3----|



----------------------|----------------------|
----------------------|----------------------|
----------------------|-------5----7---------|
--0----1----3----5----|--5--------------5----|


----------------------|----------------------|
----------------------|----------------------|
-----------------5----|--5----7----8----5----|
--3----1----0---------|----------------------|

----------------------|
----------------------|
--5----7----8---------|
-----------------5----|


BRIDGE (Repeat)


--------------------------------|
--------------------------------|
--5---------7--8--7-------------|
---------------------6----------|

----------------------------------------|
----------------------------------------|
--10----8----7----8---------------------|
-----------------------3----0----3--4--5|


----------------------|
----------------------|
----------------------|
--0----3----4----5----|


CHORUS (Repeat)


---------------------------------------|
--7--5---------------------------------|
---------8--7------5----5----5----5----|
---------------------------------------|

----------------------|----------------------|
----------------------|----------------------|
--5----7----8----7----|----------------------|
----------------------|--5----5----5----5----|

----------------------|----------------------|
----------------------|----------------------|
----------------------|----------------------|
--5----3----5----6----|--6----6----6----6----|

----------------------|----------------------|
----------------------|----------------------|
----------------------|----------------------|
--5----3----1----1----|--1----1----1----1----|

----------------------|----------------------|
----------------------|----------------------|
----------------------|----------------------|
--0----1----3----3----|--3----3----3----5----|


----------------------|----------------------|
----------------------|----------------------|
----------------------|----------------------|
--6----5----1----1----|--1----1----1----0----|

----------------------|----------------------|
----------------------|----------------------|
----------------------|----------------------|
--1----3----3----3----|--3----3----5----6----|


----------------------------------|
----------------------------------|
----------------------------------|
--5----5----8----6------5----5----|

BASS SOLO (Repeat)


----------------------|-----------------------|
----------------------|-----------------------|
--5----5----7----8----|--10----8----7----5----|
----------------------|-----------------------|


-----------------------|----------------------|
--------7----5----3----|--5-------------------|
-----------------------|-------7----5---------|
--10-------------------|----------------------|

Notes:

Spred the Gazerock!
Here are popular gazerock songs that hasn't been tabbed yet:

* Juunana Sai (Key of D minor)
* Katherine in the trunk (Key of G#minor)
* Anata no tame ni kono inochi (Only bass tabs are available...)
* Shiikureta haru, kawarenu haru
* Machibouke No Kouen De...
* Doro Darake no Seishun
* [DIS]
* Sentimental ni onigokko
* Kantou Dogeza Kumiai
* Okuribi

New Songs:

* Sugar Pain
* An unbearable act
* The murderous intent
* Hesitating means death
* Vortex
* Unceratin Sense

Please tab these songs if you are able to, and don't forget to subscribe! :)

SUBSCRIBE:
            
Submit corrections



        Juunana Sai lessons Hard to play? Try these video lessons and learn fast Juunana Sai lessons
        
↑ Back to top | Tablatures and chords for acoustic guitar and electric guitar, ukulele, drums are parodies/interpretations of the original songs. You may use it for private study, scholarship, research or language learning purposes only