» » »

Gary Numan - Are 'Friends' Electric? Bass

Artists:  A B C D E F G H I J K L M N O P Q R S T U V W X Y Z # 

Are 'Friends' Electric? Bass

(ver. 3) Click to play this song!
Gary Numan
 Rating:
3.7/5 (6 votes)


 Are 'Friends' Electric? lessons Tabs too difficult? Try these video lessons and learn fast
 
                Verse: X Number of times

G:----------------------5------|
D:------------------------3--5-|
A:--3-3-0-1-1-0-3-3-0-1--------|
E:-----------------------------|


Bridge: X number of times

G:--------------------------------|
D:-----------------------3--------|
A:--------------------------------|
E:--1-1-----1-1-----1-1----1-1----|



Ref.  X number of times


G:---------|-----5----|----------|------5--4-|
D:----3-0--|-0-7---7--|-----2----|----5------|
A:---3-----|----------|---3---3--|--0--------|
E:--3------|----------|-1--------|-----------|


Bridge-out: X number of times


G:---------------|
D:---------------|
A:---------------|
E:-3---1-----7---|


You wil hear witch part is what and how long and when to play it, the bridge-out is prob.
called something else:P But its the part right after the chorus part is. A few parts is 
added by me as a fill, you will recognise what is what to the original, this one is pretty 
accurate. Enjoy it, took me, 10min to make it, after browsing net for tab, and didnt find it


This is my first ever made tab, and im not a very skilled tab maker so im happy bout it:)
            
Submit corrections



        Are 'Friends' Electric? lessons Hard to play? Try these video lessons and learn fast Are 'Friends' Electric? lessons
        
↑ Back to top | Tablatures and chords for acoustic guitar and electric guitar, ukulele, drums are parodies/interpretations of the original songs. You may use it for private study, scholarship, research or language learning purposes only