» » »

Gallows - The Riverbed Bass

Artists:  A B C D E F G H I J K L M N O P Q R S T U V W X Y Z # 

The Riverbed Bass

(ver. 3) Click to play this song!
Gallows
 Rating:
4/5 (4 votes)


 The Riverbed lessons Tabs too difficult? Try these video lessons and learn fast
 
                Gallows - The Riverbed
Grey Britain
Drop D (DADG)

Start at 20 seconds or just after the peak of the 3rd siren
G|------------------------------------|
D|------------------------------------|
A|---1---1---1---1---0---0---0---0----|
D|--0--00--00--00--00--00--00--00--0--| x4


G|-------------------------------------|
D|-------------------------------------|
A|---1------1--------------------------|
D|-0--00--0--00---333333332225552h3----| x3

                            LET IT RAIN!
G|-------------------------------------|
D|-------------------------------------|
A|---1------1------1------1------------|
D|-0--00--0--00--0--00--0--00----------|


G|------------------------------------|
D|------------------------------------|
A|---1---1---1---1---0---0---0---0----|
D|--0--00--00--00--00--00--00--00--0--| x2


G|-------------------------------------|
D|-------------------------------------|
A|---1------1--------------------------|
D|-0--00--0--00---333333332225552h3----| x3

G|-------------------------------------|
D|-------------------------------------|
A|---1------1------1------1------------|
D|-0--00--0--00--0--00--0--00----------|


G|----------------------------------|
D|-----------2----------------------|
A|-0-3-5-0-3---0-3-5-0-3-5-0-2-3-2--|
D|----------------------------------| x8


G|-------------------|
D|-------------------|
A|-1111----11113333--|
D|-----3333----------|


G|----------------------------------|
D|-----------2----------------------|
A|-0-3-5-0-3---0-3-5-0-3-5-0-2-3-2--|
D|----------------------------------| x4


G|-------------------|
D|-------------------|
A|-1111----11113333--|
D|-----3333----------| x2


G|-------------------|
D|-1111----11113333--|
A|-----1111----------|
D|-------------------|


G|-------------------------------------|
D|-------------------------------------|
A|---1------1------1------1------------|
D|-0--00--0--00--0--00--0--00----------|


G|---------------------------|
D|---------------------------|
A|---------------------------|
D|-0---0--------0---00---00--|


G|-------------------------------------|
D|-------------------------------------|
A|-1----------1---------1--------------|
D|--00000000---00000000--00000000--R---| x4


G|----------------------|
D|----------------------|
A|-1---1---1---1--------|
D|-----------------0~---|


G|----------------------------------|
D|----------------------------------|
A|-1---1---1---1---0---0---0---0----|
D|--00--00--00--00--00--00--00--00--| x4


G|----------------------|
D|----------------------|
A|-1---1---1---1--------|
D|-----------------0~---|
            
Submit corrections



        The Riverbed lessons Hard to play? Try these video lessons and learn fast The Riverbed lessons
        
↑ Back to top | Tablatures and chords for acoustic guitar and electric guitar, ukulele, drums are parodies/interpretations of the original songs. You may use it for private study, scholarship, research or language learning purposes only