» » »

Gackt - Vanilla Tabs

Artists:  A B C D E F G H I J K L M N O P Q R S T U V W X Y Z # 

Vanilla Tabs

(ver. 1) Click to play this song!
Gackt
 Rating:
4.3/5 (6 votes)


 Vanilla lessons Tabs too difficult? Try these video lessons and learn fast
 
                Gackt - Vanilla [unplugged]
Standard Tuning - Both guitars

Backing Guitar only really uses 3 chords. The backing 
parts also sound better (And more like the recording)
if you turn down the tone on your guitar, but this song
was supposidly acoustic, so I guess it doesn't matter.

Verse/other parts:
e:----------------:
b:--3------6------:
g:--5------8------:
d:--5------8------:
a:--5------8------:
e:----------------:
The chord changes are easy to hear, and when the song begins
to pick up, the chords are played multiple times, but they
don't change until the chorus.

Chorus:
e:---------------:
b:--3------8-----:
g:--5-----10-----:
d:--5-----10-----:
a:--5-----10-----:
e:---------------:
Same as verse, the chord changes are pretty easy.

There's parts in the song where individual notes from the chords are 
picked, but it's pretty random, and doesn't need to be tabbed out.


Intro:
e:---------11---13h14h13-13-----------------------------------------:
b:--13--13-------------------13-11----11----11----------------------:
g:---------------------------------12----10------10h11p10-10h11p10--:
d:------------------------------------------------------------------:
a:------------------------------------------------------------------:
e:------------------------------------------------------------------:

e:------------------------------------------------------------------:
b:------------------------------------------------------------------:
g:--10h11p10-10h11p10-11--10----------------------12----------------:
d:---------------------------13----------------13----13-/15-/15--\--:
a:------------------------------14----------14----------------------:
e:---------------------------------16-15-16-------------------------:


0:23
e:---------------------------------------------:
b:---------------------------------------------:
g:--10h11p10-----------------------6-----9-----:
d:------------9h10p9h10---/8--8--8----/8---10--:
a:---------------------------------------------:
e:---------------------------------------------:

0:42
e:--(9)-(9)(6)--:
b:--/10--10\8---:
g:--/10--10\8---:
d:--------------:
a:--------------:
e:--------------:
(I'm not really sure if the
notes in parenthesis are
there or not)

0:51
e:---------------------------------------:
b:---------------------------------------:
g:--7/8/9/10/11/12/13-13\12\11\10\9\8\7--:
d:---------------------------------------:
a:---------------------------------------:
e:---------------------------------------:
(This part is kind of hard to tab out, he 
slides from the 7th fret to the 13th, and
back while picking the notes)

0:57
e:----------------:
b:----------------:
g:--10h9----10-8--:
d:-------10-------:
a:----------------:
e:----------------:

1:01
e:-----------------------------:
b:--16p14-12----12-------------:
g:-----------14----12----------:
d:--------------------/15-/15--:
a:-----------------------------:
e:-----------------------------:

1:13
e:-----7h8-11-13-11-8-13-11-8---10----------8-10---10-8--------:
b:--/8------------------------8----8-8---/8-------------8-6----:
g:----------------------------------------------------------5--:
d:-------------------------------------------------------------:
a:-------------------------------------------------------------:
e:-------------------------------------------------------------:

e:--8h11-------------------------------------------------8-11p7-9-----:
b:-------8------------------------------------------7-8----------/13--:
g:---------9-8-5-8--8-7-5-7-7--7------------8-10-11-------------------:
d:------------------------------7----7h9h10---------------------------:
a:-------------------------------7-8----------------------------------:
e:--------------------------------------------------------------------:

1:36
e:---------------------------------:
b:-----10-11-10---------8--/14\13--:
g:---10--------10--------8-/14\13--:
d:--8------------8----8---8--------:
a:------------------6--------------:
e:---------------------------------:

Solo
e:-------------------------------------------:
b:-------------------------------------------:
g:-------------------------------------------:
d:--13h11h10*----(13)\-4-3--4p3--3--2--------:
a:-------------------------------------------:
e:------------------------------------//-4---:
*Tremolo picking (Really fast)

(continued)
e:-----------------------------------------------------------------------:
b:-------------------------------------------------12h15-------16-16p13--:
g:-------------------------------------------------------15h16-----------:
d:-------------15-/17-/17--/17-14----16----14-15B------------------------:
a:----------15--------------------17----15-------------------------------:
e:--8/13h14--------------------------------------------------------------:

(I might be missing a few of the more insignificant lead guitar parts,
mostly the random single notes that are picked throughout the song.)
            
Submit corrections



        Vanilla lessons Hard to play? Try these video lessons and learn fast Vanilla lessons
        
↑ Back to top | Tablatures and chords for acoustic guitar and electric guitar, ukulele, drums are parodies/interpretations of the original songs. You may use it for private study, scholarship, research or language learning purposes only