» » »

Gabe Bondoc - Gentlemen Dont Tabs

Artists:  A B C D E F G H I J K L M N O P Q R S T U V W X Y Z # 

Gentlemen Dont Tabs

(ver. 3) Click to play this song!
Gabe Bondoc
 Rating:
4/5 (4 votes)
                First tab. :D
Standard Tuning (eBGDAE)
Should sound like this: 

e|----------|-5--------|----------|----------|
B|----5-5h7-|---5--5/7-|----------|----------|
G|---7------|----------|---7------|--7---5/7-|
D|--7-------|----------|---7------|--7---4---|
A|-5--------|---4------|----------|------5---|
E|----------|----------|---7---0h5|--7-------|

e|----------|----------|----------|----------|
B|---5------|------3-3-|---------5|-------8--|
G|---7---7--|----4---2-|-------6--|-------7--|
D|---7------|---0------|-----7----|-------5--|
A|---5------|----------|2/4-------|4-5-7--7--|
E|----------|-3------2-|----------|----------|

e|----------|----------|----------|----------|
B|----------|-77-------|--1---1---|----------|
G|----------|-66-------|--2---2---|-8-9--11--|
D|----------|----------|--2---2---|-7-7--9---|
A|5h7-------|----------|----------|----------|
E|----6--5--|-----3--2-|-2--2--2/8|-7-7--9---|

e|----------|-----10p7-|-5--------|----------|
B|-8---7h8--|----7-----|-5--------|----------|
G|-9---9----|---7------|-6--------|----------|
D|-9---9----|--9-------|-7--------|----------|
A|-7---7----|-7--------|-7--------|----------|
E|----------|----------|-5--------|----------|
            
Submit corrections

↑ Back to top | Tablatures and chords for acoustic guitar and electric guitar, ukulele, drums are parodies/interpretations of the original songs. You may use it for private study, scholarship, research or language learning purposes only