» » »

Fountains Of Wayne - Staceys Mom Tabs

Artists:  A B C D E F G H I J K L M N O P Q R S T U V W X Y Z # 

Staceys Mom Tabs

(ver. 1) Click to play this song!
Fountains Of Wayne
 Rating:
4/5 (4 votes)

 Staceys Mom lessons Tabs too difficult? Try these video lessons and learn fast
 
                Key:

h= hamer on
p =pull off
X =number of times to play

INTRO
Gtr. 1. (palm muted)

|------------------------------------------------------------|
|------------------------------------------------------------|
|------------------------------------------------------------|   X6
|------------------------------------------------------------|
|---------------------------------------6--7-----------------|
|------------0--0--0--5--5--5--5--5--6--------5--5--5--5--5--|

Gtr. 2 (Plays after Gtr.1 part)

|----------------|
|----------------|
|-------------9--|
|-------------9--|  X6
|-------------7--|
|----------------|

VERSE
Gtr. 1

|------------------------------------------------------|
|------------------------------------------------------|
|------------------------------------------------------|
|------------------------------------------------------| X8
|------7--7--7--7--7--7--7--7--7--6--7--7--7--7--7--7--|
|------0--0--0--5--5--5--5--5--6--------5--5--5--5--5--|


Gtr. 2 (plays after Gtr.1 every two times threw listen to song for timing)

|------------------------------------------------------------------------------------------|
|------------------------------------------------------------------------------------------|
|---------9--------------------------------------------------------------------------------|
|---------9--------------------------------------------------------------------------------|  X6
|---------7--------------------------------------------------------------------------------|
|------------------------------------------------------------------------------------------|


PRE-CHORUS
Gtr.1&2

|----------------------------------------------------------|
|----------------------------------------------------------|
|----------------------------------------------------------|
|------6-------------7----------------6------------7-------|
|------6--- X8 ------7----  X8  ------6-- X8 ------7-- X5 -|
|------4-------------5----------------4------------5-------|


CHORUS
Gtr.1&2

|---------------------------------------------|
|---------------------------------------------|
|-----2----------------------4---------6------|
|-----2-  X3-----2-----------4- X3 ----6- X2 -|       X2
|-----0----------2-- X3 -----2---------4------|
|----------------0----------------------------|

|---------------------------------------------|
|---------------------------------------------|
|-----2--------------------5-----------6------|
|-----2- X3 --- 2----------5- X3 ------6- X3 -|
|-----0-------- 2- X3 -----3-----------4------|
|---------------0-----------------------------|


|-----------------------------|
|-----------------------------|
|------2-------------- 4------|
|------2- X8-----------4- X5 -|
|------0---------------2------|
|-----------------------------|


AFTER THE FIRST CHORUS IT GOES BACK INTO THE INTRO FOR ONE TIME IF YOU LISTEN TO THE 
SONG YOU WILL HEAR WHAT I MEAN







SOLO
Gtr.1

|------------------------------------------------------------------------------------|
|------------------------------------------------------------------------------------|
|--------5h7--9--7--5---------------------------------5h7--9--7--5----4-5-4-5-4-5-4--|
|-------------------------5h7--7--7p5--9--7--5---------------------5-----------------|
|------------------------------------------------------------------------------------|
|------------------------------------------------------------------------------------|


|------------------------------------------------------------------------------|
|------------------------------------------------------------------------------|
|----5h7--9--7--5----------------------------4-5-4-5-4-5-4-5--8-9-8-9-8-9-8-9--|
|--------------------5h7--7--7p5--9--7--5--------------------------------------|
|------------------------------------------------------------------------------|
|------------------------------------------------------------------------------|

Gtr.2

|----------------------------------------|
|----------------------------------------|
|----5-----------------7----------9------|
|----5- X3----5--------7- X3------9--X2--|      X2
|----3--------5- X3----5----------7------|
|-------------3--------------------------|

|--------------------------------------------|
|--------------------------------------------|
|-----5-------------------8----------9-------|
|-----5--X3-------5-------8- X3------9-- X3 -|
|-----3-----------5--X3---6----------7-------|
|-----------------3--------------------------|


|----------------------------|
|----------------------------|
|---------5-----------7------|
|---------5- X8-------7- X8--|
|---------3-----------5------|
|----------------------------|





OUTRO
Gtr.1&2

|----------------------------------------|
|----------------------------------------|
|----5-----------------7----------9------|
|----5- X3----5--------7- X3------9--X2--| X2
|----3--------5- X3----5----------7------|
|-------------3--------------------------|

|------------------------------------------|
|------------------------------------------|
|-----5-------------------8--------9-------|
|-----5--X3-------5-------8- X3----9-- X3 -|
|-----3-----------5--X3---6--------7-------|
|-----------------3------------------------|


|---------------------------|
|---------------------------|
|---------5----------7------|
|---------5- X8------7- X8--|
|---------3----------5------|
|---------------------------|

|----------------------------------------|
|----------------------------------------|
|----5-----------------7----------9------|
|----5- X3----5--------7- X3------9--X2--| X2
|----3--------5- X3----5----------7------|
|-------------3--------------------------|

|------------------------------------------|
|------------------------------------------|
|-----5-------------------8--------9-------|
|-----5--X3-------5-------8- X3----9-- X3 -|
|-----3-----------5--X3---6--------7-------|
|-----------------3------------------------|


|---------------------------|
|---------------------------|
|---------5----------7------|
|---------5- X8------7- X5--|
|---------3----------5------|
|---------------------------|

SONG ORDER:
Intro
Verse
Pre-chorus
Chorus
Intro
Verse
Pre-chorus
Chorus
Solo
Outro
            
Submit corrections


        Staceys Mom lessons Hard to play? Try these video lessons and learn fast Staceys Mom lessons
        
↑ Back to top | Tablatures and chords for acoustic guitar and electric guitar, ukulele, drums are parodies/interpretations of the original songs. You may use it for private study, scholarship, research or language learning purposes only