» » »

Flight Of The Conchords - Jenny Tabs

Artists:  A B C D E F G H I J K L M N O P Q R S T U V W X Y Z # 

Jenny Tabs

(ver. 3) Click to play this song!
Flight Of The Conchords
 Rating:
4/5 (4 votes)

 Jenny lessons Tabs too difficult? Try these video lessons and learn fast
 
                -------------------------------------------------------------------------------
                        JENNY - Flight of the Conchords
-------------------------------------------------------------------------------

Tuning:Standard

Okay, so there are parts im not sure on, mostly i'm positive though

Verse Chords:
e|------------------------------|
B|-----------------10--121212---|
G|-----11----11----11--121212---|
D|-----12----12----11--121212---|
A|-----12----12--9-9---101010---|
E|--10-10--9-9------------------|

Chord Change 1: right after "how is that guy anyway?-she's good"
e|------------------------| and as he says "oh thats the only way 
B|----33---22-------------| to eat sandwiches" but that time it's
G|----22---22-------------| played longer.
D|--0-00-0-00--4-4-x-555--|
A|-------------4-4-x-555--|
E|-------------2-2-x-333--|

Chord Change 2: as he says "we just looked out across the city 
e|--x--x--x-x--x--x-x--x--x--x--x--xx---|
B|--3--3--3-2--2--2-0--0--0--0--0--00---|
G|--4--4--4-2--2--2-0--0--0--0--0--00---|
D|--4--4--4-2--2--2-0--0--0--0--0--00---|
A|--22222222000000002--2--2--2--2--22---|
E|------------------33333333333333333---|

e|--x--x--x-x--x--x-------x-------------|
B|--3--3--3-2--2--2-------0-------------|
G|--4--4--4-2--2--2-------0-------------|
D|--4--4--4-2--2--2-------0-------------|
A|--2222222200000000------2-------------|
E|------------------33333333333333333---|
                    ^^^^^^ ^^^^^^^^^^
                      ^Palm Muted^
e|--x--x--x-x--x---x----
B|--3--3--3-3--2~--10~--
G|--4--4--4-3--2~--11~--and then verse continues..
D|--4--4--4-3--2~--12~--
A|--222222221--0~--12~--
E|-----------------10~--


Meanwhile, Jermaine plays something along the D scale I believe
goes something like this, but he's always changing it around..
not surprisingly as he's talking.
E-----------5-3-2------------------------------------- 
B-2h3p2-----------5-3-2---------------------2-3-2-5-3- 
G-------4-2~------------4-2-2h4p2-2h4p2-2-4----------- 
D---------------------------0-----0------------------- 
A----------------------------------------------------- 
E----------------------------------------------------- 

E-5-3-2-------5-3-2-----------------------------... 
B-------5-3p2-------5-3-(2)-----2h3p2~2h3p2p0---... 
G---------------------------4-2--------------h2-... 
D-----------------------------------------------... 
A-----------------------------------------------... 
E-----------------------------------------------...

Credit for that goes to Tony DeStephano, as I did not feel like 
tabbing that myself..


| b(n) bend to that note(n) on that string
| b  bend half
| /  slide up
| \  slide down
| h  hammer-on
| p  pull-off
| ~  vibrato
| +  harmonic
| x  Mute note
===============================================================================
            
Submit corrections


        Jenny lessons Hard to play? Try these video lessons and learn fast Jenny lessons
        
↑ Back to top | Tablatures and chords for acoustic guitar and electric guitar, ukulele, drums are parodies/interpretations of the original songs. You may use it for private study, scholarship, research or language learning purposes only