» » »

Five Finger Death Punch - Bleeding Bass

Artists:  A B C D E F G H I J K L M N O P Q R S T U V W X Y Z # 

Bleeding Bass

(ver. 2) Click to play this song!
Five Finger Death Punch
 Rating:
4/5 (13 votes)


 Bleeding lessons Tabs too difficult? Try these video lessons and learn fast
 
                
Tuning: CGCF

Kickass song. Pretty easy bass line. I made this tab because i noticed the other bass 
was very misleading and there was a few mistakes.

(0:12) intro 1
F|-------------------------------------------------------------------------|
C|-------------------------------------------------------------------------|
G|---------------------1/3~---------5~-------------------------------------|
C|-0~--------0~--------------------3---------------------------------------|
note- you may be wondering what the slide from 1/3 is, but if u listen closely, its there.

(0:24) intro 2
F|-------------------------------------------------------------------------|
C|-------------------------------------------------------------------------|
G|------------------------1/3-3~------------5-5~---------------------------|
C|-0-0~-------0-0~-------------------------3-------------------------------|

(0:36)
F|-------------------------------------------------------------------------|
C|-------------------------------------------------------------------------|
G|----------------------------------------------3--3-3--3-3--3-3--3-3------|
C|-0--0-0--0-0--0-0--0-0--0--0-0--0-0--0-0--0-0----------------------------|

F|-------------------------------------------------------------------------|
C|-------------------------------------------------------------------------|
G|-5--5-5--5-5--5-5--5-5---------------------------------------------------|
C|-------------------------------------------------------------------------|
note- follow the rhythm of the guitar.

(0:49) the sweet beginning guitar part \m/
F|-------------------------------------------------------------------------|
C|-------------------------------------------------------------------------|
G|------------------------2--2-2--2-2--2-2--2-2--7--7-7--7-7--7-7--7-7-----|
C|-0--0-0--0-0--0-0--0-0---------------------------------------------------|

F|-------------------------------------------------------------------------|
C|-------------------------------------------------------------------------|
G|-/5--5-5--5-5--5-5--5-5-----play twice-----------------------------------|
C|-------------------------------------------------------------------------|
note- when playing the 7's, i have not distinguished if they are 7's or 3's

(1:12) badass scream
F|-------------------------------------------------------------------------|
C|-------------------------------------------------------------------------|
G|-------------------------------------------------------play twice--------|
C|-0--0-0-0-0---0--0-0-0-0---0--0-0-0-0--0-3333-5555-----------------------|

(1:25) verse 1
F|-------------------------------------------------------------------------|
C|-------------------------------------------------------------------------|
G|------------------3~---------5~------------------------------------------|
C|-0~----------------------------------------------------------------------|

F|-------------------------------------------------------------------------|
C|-------------------------------------------------------------------------|
G|--------------------3~--------5~-----------------------------------------|
C|-0~--------0~------------------------------------------------------------|

(1:48) pre chorus 1
F|-------------------------------------------------------------------------|
C|-------------------------------------------------------------------------|
G|----------------------------------------------3--3-3--3-3--3-3--3-3------|
C|-0--0-0--0-0--0-0--0-0--0--0-0--0-0--0-0--0-0----------------------------|

F|-------------------------------------------------------------------------|
C|-------------------------------------------------------------------------|
G|-5--5-5--5-5--5-5--5-5-----play twice------------------------------------|
C|-------------------------------------------------------------------------|
note- follow the rhythm of the guitar.

(2:12) chorus 1
F|-------------------------------------------------------------------------|
C|-------------------------------------------------------------------------|
G|-------------------------------------------------------play twice--------|
C|-0--0-0-0-0---0--0-0-0-0---0--0-0-0-0--0-3333-5555-----------------------|

(2:24) verse 2
F|-------------------------------------------------------------------------|
C|-------------------------------------------------------------------------|
G|------------------3~---------5~------------------------------------------|
C|-0~----------------------------------------------------------------------|

F|-------------------------------------------------------------------------|
C|-------------------------------------------------------------------------|
G|--------------------3~--------5~-----------------------------------------|
C|-0~--------0~------------------------------------------------------------|

(2:48) pre chorus 2
F|-------------------------------------------------------------------------|
C|-------------------------------------------------------------------------|
G|----------------------------------------------3--3-3--3-3--3-3--3-3------|
C|-0--0-0--0-0--0-0--0-0--0--0-0--0-0--0-0--0-0----------------------------|

F|-------------------------------------------------------------------------|
C|-------------------------------------------------------------------------|
G|-5--5-5--5-5--5-5--5-5-----play twice------------------------------------|
C|-------------------------------------------------------------------------|
note- follow the rhythm of the guitar.

(3:12) chorus 2
F|-------------------------------------------------------------------------|
C|-------------------------------------------------------------------------|
G|-------------------------------------------------------play twice--------|
C|-0--0-0-0-0---0--0-0-0-0---0--0-0-0-0--0-3333-5555-----------------------|

(3:24) bridge
F|-------------------------------------------------------------------------|
C|-------------------------------------------------------------------------|
G|-----------2~---------3~---------5~--------play twice--------------------|
C|-0~----------------------------------------------------------------------|

(3:48)
F|-------------------------------------------------------------------------|
C|-------------------------------------------------------------------------|
G|-------------------------------------------------------play 4 times------|
C|-0--0-0-0-0---0--0-0-0-0---0--0-0-0-0--0-3333-5555-----------------------|

(4:12) outro
F|-------------------------------------------------------------------------|
C|-------------------------------------------------------------------------|
G|----rest for outro-------------------------------------------------------|
C|-------------------------------------------------------------------------|


| /  slide up
| \  slide down
| h  hammer-on
| p  pull-off
| ~  vibrato
| +  harmonic
| x  Mute note
============================================================================
            
Submit corrections



        Bleeding lessons Hard to play? Try these video lessons and learn fast Bleeding lessons
        
↑ Back to top | Tablatures and chords for acoustic guitar and electric guitar, ukulele, drums are parodies/interpretations of the original songs. You may use it for private study, scholarship, research or language learning purposes only