» » »

Five Finger Death Punch - Falling In Hate Bass

Artists:  A B C D E F G H I J K L M N O P Q R S T U V W X Y Z # 

Falling In Hate Bass

(ver. 1) Click to play this song!
Five Finger Death Punch
 Rating:
4/5 (4 votes)


 Falling In Hate lessons Tabs too difficult? Try these video lessons and learn fast
 
                -------------------------------------------------------------------------------
			     Falling in hate - five finger death punch
-------------------------------------------------------------------------------


Falling in Hate Tabs made by glowingjowel, feel free to use and improve as you wish.Have 
fun !

Tuning: BEAD

Intro/main rift

G|---------------------------------------------------------------------------|
D|---------------------------------------------------------------------------|
A|---------------------------------------------------------------------------| × 3
E|-5\7-7-7-7--5-7-7-7-5-7-7-7------------------------------------------------|

G|---------------------------------------------------------------------------|
D|---------------------------------------------------------------------------|
A|----------------5-4-4-4----------------------------------------------------|
E|-5\7-7-7-7--5-5------------------------------------------------------------|

Pre-second part

G|---------------------------------------------------------------------------|
D|---------------------------------------------------------------------------|
A|-------1------1--------------1------1--------------------------------------| × 2
E|-0-0-0---0--0---0-3-3--0-0-0---0--0---0-1-1--------------------------------|

Second part

G|---------------------------------------------------------------------------|
D|------------------------3-2------------------------------------------------|
A|--------------------------------------------------5-5-4--------------------| × 2
E|-0-0-2-3-0-0-1-0--0-1-0------0-0-2-3-0-0-1-0--0-1--------------------------|

Back to main rift

G|---------------------------------------------------------------------------|
D|---------------------------------------------------------------------------|
A|---------------------------------------------------------------------------| × 4
E|-5\7-7-7-7--5-7-7-7-5-7-7-7------------------------------------------------|

G|---------------------------------------------------------------------------|
D|---------------------------------------------------------------------------|
A|----------------5-4-4-4----------------------------------------------------|
E|-5\7-7-7-7--5-5------------------------------------------------------------|

Pre-second part

G|---------------------------------------------------------------------------|
D|---------------------------------------------------------------------------|
A|-------1------1--------------1------1--------------------------------------| × 2
E|-0-0-0---0--0---0-3-3--0-0-0---0--0---0-1-1--------------------------------|

Second part

G|---------------------------------------------------------------------------|
D|------------------------3-2------------------------------------------------|
A|--------------------------------------------------5-5-4--------------------| × 2
E|-0-0-2-3-0-0-1-0--0-1-0------0-0-2-3-0-0-1-0--0-1--------------------------|

middle part

G|---------------------------------------------------------------------------|
D|---------------------------------------------------------------------------|
A|---------------------------------------------------------------------------| × 6 (last 
2 are more aligned together)
E|-0-000-0-000-000-0-000-0-000-----------------------------------------------|

back to main rift

G|---------------------------------------------------------------------------|
D|---------------------------------------------------------------------------|
A|---------------------------------------------------------------------------|
E|-5\7-7-7-7--5-7-7-7-5-7-7-7------------------------------------------------|

G|---------------------------------------------------------------------------|
D|---------------------------------------------------------------------------|
A|----------------5-4-4-4----------------------------------------------------|
E|-5\7-7-7-7--5-5------------------------------------------------------------|

G|---------------------------------------------------------------------------|
D|---------------------------------------------------------------------------|
A|---------------------------------------------------------------------------| × 3
E|-5\7-7-7-7--5-7-7-7-5-7-7-7------------------------------------------------|

G|---------------------------------------------------------------------------|
D|---------------------------------------------------------------------------|
A|----------------5-4-4-4----------------------------------------------------|
E|-5\7-7-7-7--5-5------------------------------------------------------------|

Then straight to second part for a nice finish.

G|---------------------------------------------------------------------------|
D|------------------------3-2------------------------------------------------|
A|--------------------------------------------------5-5-4--------------------| × 2
E|-0-0-2-3-0-0-1-0--0-1-0------0-0-2-3-0-0-1-0--0-1--------------------------|


| /  slide up
| \  slide down
| h  hammer-on
| p  pull-off
| ~  vibrato
| +  harmonic
| x  Mute note
===============================================================================
            
Submit corrections



        Falling In Hate lessons Hard to play? Try these video lessons and learn fast Falling In Hate lessons
        
↑ Back to top | Tablatures and chords for acoustic guitar and electric guitar, ukulele, drums are parodies/interpretations of the original songs. You may use it for private study, scholarship, research or language learning purposes only