Home » F » Finger Eleven »

Finger Eleven - Walking In My Shoes Tabs

Artists:  A B C D E F G H I J K L M N O P Q R S T U V W X Y Z # 

Walking In My Shoes Tabs

(ver. 2) Click to play this song!
Finger Eleven
 Rating:
4/5 (4 votes)
                #This OLGA file is the author's own work and represents their interpretation  #
#research. Remember to view this file in Courier, or some other monospaced    #


"Walking in my Shoes"
Finger Eleven
Tuning=DADBGe
Transposed and corrected by Nate

Intro
Gtr. 1
1:--------------------------------------------------------------
2:--------1-----------------------6-----------------------------
3:-----2-----2-----------------7-----7----------------2h3-------
4:-------------------------------------------------3------------
5:----------------------------------------------1---------------
6:-0------------------------5-----------------------------------

Gtr. 2
1:--------------------------------------------------------------
2:--------------------------------------------------------------
3:----------------------------------------------3---------------
4:-0------------------------5-------------------3---------------
5:-0------------------------5-------------------1---------------
6:-0------------------------5-------------------3---------------

1:-------------------------------------------------------------
2:-------1-----------------------------------------------------
3:----2-----2--------------------------------------------------
4:-0-----------------------------------------------------------
5:-0--------------------------------------------2b3r2b3b2r3b2--
6:-0-----------------------------------------------------------
                                              

Verse 
1:---------------------------
2:-13---13-------------------
3:-10------9-----9/7---------
4:---------------------------
5:---------------------------
6:---------------------------

Pre-Chorus A 
1:-----------------------------
2:-----------------------------
3:-5---5-5-5-------------------
4:-5---5-5-5---0-0---0-0-0---0-
5:-3---3-3-3---0-0---0-0-0---0-
6:-------------0-0---0-0-0---0-

Pre-Chorus B
1:----------------------------------------------
2:----------------------------------------------
3:-5---5-5-5----------------*3*------------*5*--
4:-5---5-5-5---0-3-----5----*3*------------*5*--
5:-3---3-3-3---0-3-----5-----1~-------------3~--
6:-------------0-3-----5------------------------
*= (don't play first two times)

Chorus A 

1:-------------------------------------------------
2:-------------------------------------------------
3:-------------------------------------------------
4:-0---0---0-0-7---7-7-7-7-8---8---8-8-5---5-5-5-5-
5:-0---0---0-0-7---7-7-7-7-8---8---8-8-5---5-5-5-5-
6:-0---0---0-0-7---7-7-7-7-8---8---8-8-5---5-5-5-5-

Chorus Part II
1:-------------------------------------
2:-------------------------------------
3:-------------------------------------
4:-8---8-8-8-8--10--10---10---10-10-10-
5:-8---8-8-8-8--10--10---10---10-10-10-
6:-8---8-8-8-8--10--10---10---10-10-10-

Chorus End
1:---
2:---
3:---
4:-0-
5:-0-
6:-0-

Solo
1:-17~------------------------------17------17-17-17-17-18-18-18-18-18-18-\10-
2:--------18--17~----18~--/20\18--------20------------------------------------
3:----------------------------------------------------------------------------
4:----------------------------------------------------------------------------
5:----------------------------------------------------------------------------
6:----------------------------------------------------------------------------

1:-/17---17-17---\10--/18-18-18-18-18-18b-18b-18b-18b-18b-18b-18b-
2:----------------------------------------------------------------
3:----------------------------------------------------------------
4:----------------------------------------------------------------
5:----------------------------------------------------------------
6:----------------------------------------------------------------
                                     *|--------------------------|
*bend up 1/2 step slowly

Riff B
1:-----------------------------------------------------------
2:-----------------------------------------------------------
3:-5---5-5-5-----------------3-3-3-3-3-3-3-3-3-3-3-3-3-3-3-3-
4:-5---5-5-5---0-3-----5-----3-3-3-3-3-3-3-3-3-3-3-3-3-3-3-3-
5:-3---3-3-3---0-3-----5-----1-1-1-1-1-1-1-1-1-1-1-1-1-1-1-1-
6:-------------0-3-----5-------------------------------------

1:---------------------------------
2:---------------------------------
3:---------------------------------
4:-5-5-5-5-5-5-5-5-5-5-5-5-5-5-5-5-
5:-5-5-5-5-5-5-5-5-5-5-5-5-5-5-5-5-
6:-5-5-5-5-5-5-5-5-5-5-5-5-5-5-5-5-

End on D5
---
---
---
-0-
-0-
-0-
            
Submit corrections

↑ Back to top | Tablatures and chords for acoustic guitar and electric guitar, ukulele, drums are parodies/interpretations of the original songs. You may use it for private study, scholarship, research or language learning purposes only