Home » F » Finger Eleven »

Finger Eleven - Sick Of It All Tabs

Artists:  A B C D E F G H I J K L M N O P Q R S T U V W X Y Z # 

Sick Of It All Tabs

(ver. 3) Click to play this song!
Finger Eleven
 Rating:
4/5 (4 votes)
                Tuning: Standard, on Acoustic

*This song, like all F11 songs, has 2 guitars throughout. 
I only have this tabbed out for one guitar, it might be missing some stuff.*

Verse/Intro		   	  Last time
e----------------------------------I---------2-----------2--------
B----------------------------------I----5-------5-----5-----------
G----9----9----9----9----9----9---I------------------------------
D-7----7----7----7----6----6----6-I-5----5-------5-4-------3----
A----------------------------------I------------------------------
E----------------------------------I------------------------------
     "Are the sins getting staler..."
Verse				Last time
e-------0-----------------0--------
B-----9-----9---9------9------9---
G---9-----8---9------9------8---9-
D-7----------------6---------------
A----------------------------------
E----------------------------------
      "Take a look how they found you..."
Chorus
e---------0-------------------------
B-------5--5----------3---------4---
G-----6-----6-------4---------6-----
D---6--------6----4--------6--------
A-4-------------2--------4----------
E-----------------------------------
         "How far down..."

Bridge
e-4--4----
B-5--4----
G-6--4----
D-6--6----
A-4--6----
D----4----
 "Coming closer, my composure..."
            
Submit corrections

↑ Back to top | Tablatures and chords for acoustic guitar and electric guitar, ukulele, drums are parodies/interpretations of the original songs. You may use it for private study, scholarship, research or language learning purposes only