Home » F » Finger Eleven »

Finger Eleven - Sad Exchange Tabs

Artists:  A B C D E F G H I J K L M N O P Q R S T U V W X Y Z # 

Sad Exchange Tabs

(ver. 3) Click to play this song!
Finger Eleven
 Rating:
4/5 (4 votes)
                
Tuning: Db Ab Db Gb Bb Eb


The bridge and solo are half from listening and half from remebering what they played when I saw them live.  I'm 95% sure they'e correct.  If not, well, then correct them.


Quiet part just before the chorus.
-|----24--24--24-----24-24----|-
-|----------------------------|-
-|--20--20--20----20------20--|-
-|----------------------------|-
-|----------------------------|-
-|----------------------------|-


Intro
-|-----------------------------------|-------------------------------------|-
-|-----------------------------------|-------------------------------------|-
-|-----------------------------------|-------------------------------------|-
-|--------------7--------------7-----|--------------7--------------7-------|-
-|--0---------8----0---------8-------|--0---------8----0---------8------7--|-
-|----000-000--------000-000-----10--|----000-000--------000-000-----10-7--|-
 pm . ... ...      . ... ...            . ... ...      . ... ...        .


Verse 1
-|----------------------------------------------------------------------|-
-|----------------------------------------------------------------------|-
-|----------------------------------------------------------------------|-
-|--------------7--------------7-----------------7--------------7-------|-
-|--7-000-000-8----7-000-000-8-------7-000-000-8----7-000-000-8------7--|-
-|--7-000-000------7-000-000-----10--7-000-000------7-000-000-----10-7--|-
    . ... ...      . ... ...         . ... ...      . ... ...        .

-|---------------------------------------------------------------------|-
-|---------------------------------------------------------------------|-
-|---------------------------------------------------------------------|-
-|--------------7--------------7-----------------7--------------7------|-
-|--7-000-000-8----7-000-000-8-------7-000-000-8----7-000-000-8--------|-
-|--7-000-000------7-000-000-----10--7-000-000------7-000-000-----10\--|-
    . ... ...      . ... ...         . ... ...      . ... ...


Pre-Chorus 1
-|---------------------------------------------------------|-
-|------------3--------------3------------3----------------|-
-|------------2--------------2------------2----------------|-
-|--8888-888--0--8888-888\-0-0--8888-888--0--8888-888--10--|-
-|--8888-888--0--8888-888\-0-0--8888-888--0--8888-888--10--|-
-|--8888-888--0--8888-888\-0-0--8888-888--0--8888-888--10--|-
                           .                           . 8x


Chorus 1
-|--------------------------------------------------------|-
-|--------------------------------------------------------|-
-|-----7777-7777-77---------------------------------------|-
-|-----7777-7777-77--8888-8888-88--5555-5555-55/--8---10--|-
-|-----5555-5555-55--8888-8888-88--5555-5555-55/--8---10--|-
-|--0----------------8888-8888-88--5555-5555-55/--8---10--|-


Verse 2
-|----------------------------------------------------------------------|-
-|----------------------------------------------------------------------|-
-|----------------------------------------------------------------------|-
-|--------------7--------------7-----------------7--------------7-------|-
-|--7-000-000-8----7-000-000-8-------7-000-000-8----7-000-000-8------7--|-
-|--7-000-000------7-000-000-----10--7-000-000------7-000-000-----10-7--|-
    . ... ...      . ... ...         . ... ...      . ... ...        .

-|------------------------------------------------------------------------|-
-|------------------------------------------------------------------------|-
-|------------------------------------------------------------------------|-
-|--------------7---------------7------------------7---------------7------|-
-|--7-000-000-8---7-7-000-000-8------7-7-000-000-8---7-7-000-000-8--------|-
-|--7-000-000-----7-7-000-000-----10-7-7-000-000-----7-7-000-000-----10\--|-
    . ... ...     . . ... ...        . . ... ...     . . ... ...


Pre-Chorus 2
-|-----------------------------------------------------------------|-
-|------------3--------------3------------3------------------------|-
-|------------2--------------2------------2------------12-12-1212--|-
-|--8888-888--0--8888-888\-0-0--8888-888--0--8888-888/-12-12-1212--|-
-|--8888-888--0--8888-888\-0-0--8888-888--0--8888-888/-10-10-1010--|-
-|--8888-888--0--8888-888\-0-0--8888-888--0--8888-888--------------|-


Chorus 2
-|---------------------------------------------------------------------|-
-|---------------------------------------------------------------------|-
-|----7777-7777-77-----------------------------------------------------|-
-|----7777-7777-77--8888-8888-88--5555-5555-55/-8-8-10-8--10-10-12-10--|-
-|----5555-5555-55--8888-8888-88--5555-5555-55/-8-8--8-8--10-10-12-10--|-
-|--0---------------8888-8888-88--5555-5555-55/-8-8--8-8--10-10-12-10--|-

-|--------------------------------------------------------------------------|-
-|--------------------------------------------------------------------------|-
-|----7777-7777-77----------------------------------------------------------|-
-|----7777-7777-77--8888-8888-88--5555-5555-55--12\-0-00-12\-0-10\12-10-10--|-
-|----5555-5555-55--8888-8888-88--5555-5555-55--12\-0-00-12\-0-10\12-10-10--|-
-|--0---------------8888-8888-88--5555-5555-55--12\-0-00-12\-0-10\12-10-10--|-
                                                      ..


Bridge
-|--------------------------------------|-        -|----------|-
-|--------------------------------------|-        -|----------|-
-|--3-----------------------------------|- 3x     -|--3-------|-
-|--x-----------------------------------|- then.. -|--x---0/--|-
-|--1-----------7---------------7-------|-        -|--1---0/--|-
-|------00-10-7---10-7--00-10-7---10-7--|-        -|------0/--|-
   16x                                               16x


Chorus 3
-|--------------------------------------------------------------------------|-
-|--------------------------------------------------------------------------|-
-|--9999-9999---------------------------------------------------------------|-
-|--9999-9999--10101010-10101010-1010--7777-7777-77--1010-12-12--1212-14-14-|-
-|--7777-7777--10101010-10101010-1010--7777-7777-77--1010-10-10--1212-12-12-|-
-|-------------10101010-10101010-1010--7777-7777-77--1010-10-10--1212-12-12-|-

-|-------------------------------------------------|-
-|-------------------------------------------------|-
-|----/9999999999----------------------------------|-
-|--2-/9999999999-10101010101010101010-7777777777--|-
-|--2-/7777777777-10101010101010101010-7777777777--|-
-|--2-------------10101010101010101010-7777777777--|-

-|------------------------------------|-
-|------------------------------------|-
-|------------------------------------|-
-|--12/14\-2-22-12/14\-2-12/14-12-12--|-
-|--12/14\-2-22-12/14\-2-12/14-12-12--|-
-|--12/14\-2-22-12/14\-2-12/14-12-12--|-
             ..


While Guitar 1 is playing the solo, Guitar 2 is playing the chorus under it.

Guitar 1
-|---------------17-------------12br--|-
-|---------17-15---15\--/101010-------|-
-|--/14-14----------------------------|-  5x
-|------------------------------------|-  
-|------------------------------------|-
-|------------------------------------|-
Bend the last note about 5 times instead of
once on the 3rd and 5th time you play it.

Guitar 2
-|--------------------------------------------------------------------------|-
-|--------------------------------------------------------------------------|-
-|----7777-7777-77----------------------------------------------------------|-
-|----7777-7777-77--8888-8888-88--5555-5555-55--12\-0-00-12\-0-10\12-10-10--|-
-|----5555-5555-55--8888-8888-88--5555-5555-55--12\-0-00-12\-0-10\12-10-10--|-
-|--0---------------8888-8888-88--5555-5555-55--12\-0-00-12\-0-10\12-10-10--|-
                                                      ..

-|------------------------------------|-
-|------------------------------------|-
-|-----7777-7777-77-------------------|-
-|-----7777-7777-77--8888-8888-88--5--|-
-|-----5555-5555-55--8888-8888-88--5--|-
-|--0----------------8888-8888-88--5--|-


End with this.
-|-----|-
-|-----|-
-|-----|-
-|--0--|-
-|--0--|-
-|--0--|-
            
Submit corrections

↑ Back to top | Tablatures and chords for acoustic guitar and electric guitar, ukulele, drums are parodies/interpretations of the original songs. You may use it for private study, scholarship, research or language learning purposes only